Acordes de Guitarra » A »Alejandro Filio » No te cambio (Tab)

No te cambio
Alejandro Filio

Letras, Acordes y Tabs para Guitarra, Bajo y Ukulele

  • D         A              Bm
    Compañera si me alejo un día
    G            D/F#          Em   Em7
    una tarde, una mañana, un junio
    A          F#m          Bm      A
    solo es momentánea la partida
    A                       G - D/F# - Em
    no te escribo en despedida
                         A
    porque no levanto un muro
    
    
    D           A              Bm
    Llevo tu cintura bajo el brazo
    G            D/F#          Em       Em7
    brilla a cada nota, en cada aplauso
    A          F#m               Bm      A
    cura una canción cualquier ausencia
    A                   G - D/F# - Em
    y aligera la impaciencia
    
  • D         D/C#           Bm   Bm A
    Compañera si me alejo un día
    G            D/F#          Em 
    una tarde, una mañana, un junio
    A          A7/A#          Bm   A
    solo es momentánea la partida
    A                   G  D/F#  Em
    no te escribo en despedida
                         A 
    porque no levanto un muro
    
    
    D         D/C#           Bm   Bm A
    Llevo tu cintura bajo el brazo
    G            D/F#          Em
    brilla a cada nota, en cada aplauso
    A          A7/A#               Bm   A
    cura una canción cualquier ausencia
    A                   G  D/F#  Em
    y aligera la impaciencia 
    
  • e--------2-----2^0-----------------3-----2-----0-----------0-----2---------|
    B----------------------3-----------------------------3-----------------3---|
    G-----------2-------2----------0------0-----0-----0-----0-----0-----0------|
    D--------0-----------------------------------------------------------------|
    A--------------------------3-----------------------------------------------|
    E--------------------------------------------------------------------------|
    
    
    
    e-------------3-------2h3-------0h2------------0-----2---------------------|
    B--------------------------3---------3-----3---------------3---------------|
    G----------2-----2----------------------2---------2-----2------------------|
    D-------0------------------------------------------------------------------|
    A--------------------------------------------------------------------------|
    E--------------------------------------------------------------------------|
    
    
    e------------------3-------2-------------------3-------2-------------------|
    B---------------------------------3--------------------------3-------------|
    G--------------0-------0------0------0-----0------0------0-----------------|
    
  •     D               Csus4                             Dsus4
    
    E |-------------------------------------------------------------------|
    A |-----------------3-------------------------------------------------|
    D |-0-------------------------------------------------0---------------|
    G |---2---2---2---2---0---0---0---0---0---0---0---0-----2-------------|
    B |-------------3-------------------3---------------------------------|
    e |-2---2---0-----------3---2---0-------0---2---3---------3-3/2/0-2-3-|
    
        C                               Dsus2
    
    E |---------------------------------------------------------------------|
    A |-3---------------3---------------------------------------------------|
    D |---------------------------------0---------------0-----------------0-|
    G |---0---0---0---0---0---0---0---0---2---2---2---2---2---2---2---2-----|
    B |---------------------------------------------------------------------|
    e |-----3---2---0-------3---2---0-------0---0---0-------0---0---0------2|
    
    
       D          A              Bm (Bm/A)
    
  • +
    ¡Colabora con nosotros!
    Envíanos tu versión de esta canción

Letra de No te cambio
Compañera si me alejo un día
una tarde, una mañana, un junio
no te escribo en despedida
porque no levanto un muro
Llevo tu cintura bajo el brazo
brilla a cada nota, en cada aplauso
cura una canción cualquier ausencia
y aligera la impaciencia
de regreso hasta tu abrazo
No te cambio por un verso,
una voz, una palabra
eres parte de este intento
de estas manos, de esta causa
y no vale una tonada
mas que el tono de tu cuerpo
cuando cae sobre la almohada
la tormenta de tu pelo
Compañera si despiertas una
piensa que uno somos en silencio
es la soledad buena fortuna
cuando brilla entre la espera
de quien prometió regreso.
No es esta verdad antagonismo
contra la verdad que nos ampara
no hay rivalidad, no existe abismo
entre métricas y ritmos
y mi boca por tu espalda
No te cambio por un verso,
una voz, una palabra
eres parte de este intento
de estas manos, de esta causa
y no vale una tonada
mas que el tono de tu cuerpo
cuando cae sobre la almohada
la tormenta de tu peloooo............................




[No te cambio chords][No te cambio cifra]
© LaCuerda.net · aviso legal · privacidad · es · en · pt · contacto
DINAMICO