Acordes de Guitarra » A »Alejandro Filio » Habrá que creer (Tab)

Habrá que creer
Alejandro Filio

Letras, Notas, Punteos, Tablaturas y Acordes de Guitarra (Tabs & Chords)

  • Letra y Acordes
    SOL            Re/Fa                  MIm
    De niño pensaba que el cielo
    DO             SOL/SI     LAm
    bajito esperaba por mi
    Re/Fa SI7                         MIm                 DO
    y fue despidiéndose siempre mas lejos
    SOL                RE                SOL
    que un día pensé en desistir.
    
    Después el ratón de los dientes
    y magia cada navidad
    aquel Santa Claus que bajaba sonriente
    pero nadie le pudo mirar.
    
        RE                            SOL
    Habrá que creer, habrá que creer
       DO                Re/Fa            SOL
    en cristo , en la paz, o en Fidel
       RE                              MIm
    Habrá que creer, habrá que creer
    
  • Tablatura
      D/F#                      G            
    E--2------------------------3--------------3--------------|
    A---------------------------------------------------------|
    D----0-----0-----0-------0--------------------0---0---0---|
    g------2-----2-----2---2--------2-0h2h0-0--0----2---------|
    b--------3-----1-----1------1h0---------------------0-----|
    e---------------------------------------------------------|
    
       C              D7        G      Am7*     G     Am7*      G   
    E---------------------------3---------------3---------------3---|
    A--3------------------------------------------------------------|
    D-----------------0------------0h2--------------0h2-------------|
    g----0---0---0--------------0---------------0---------------0---|
    b--1---3------------1-------0------1--1--1--0------1--1--1--0---|
    e----------0------2---3--3--3------3--3--3--3------3--3--3--3---|
                                                                    FIN Intro
    
    INTER I:
       G                 Am7*
    E--3-------------------------||
    
  • +
    ¡Colabora con nosotros!
    Envíanos tu versión de esta canción

Letra de Habrá que creer
De niño pensaba que el cielo
bajito esperaba por mi
y fue despidiéndose siempre mas lejos
que un día pensé en desistir.
Después el ratón de los dientes
y magia cada navidad
aquel Santa Claus que bajaba sonriente
pero nadie le pudo mirar.
Habrá que creer, habrá que creer
en cristo , en la paz, o en Fidel
Habrá que creer, habrá que creer
En algo o en alguien tal vez.
Un beso me puso en la boca
y dijo soy tuya lo ves
después en la prepa paso por la tropa
pero fue mi primera mujer.
El patio la gran ceremonia
la patria la luz tricolor
después la traición de quien roba, deshonra
y nos vende el derecho a la voz
Habrá que creer, ..................... (2 veces)



© LaCuerda.net · Aviso Legal · Privacidad