Tab p/Bajo de Alejandro Fernandez: Se me va la voz
Roy Tabaré
Se me va la voz [2009*]
hola que tal espero que les guste
att. ARGENI
INTRO
G-0-2-4-5-5/7-4-2-0-5/7-4-2-0-2
D------------------------------2


VERSO 1
 ACORDES E,B,C#,A
  como duele hoy
G)----------------------------------------------------------------------
D)----------------------------------------------------------------------
A)-7---------4----------------------------------------------------------
E)------7---------5-----------------------------------------------------

  verso 1
  ACORDES E,B,C#,A
  lentamente hoy
G)----------------------------------------------------------------------
D)----------------------------------------------------------------------
A)--77--777-7------------44-444-4---------------------------------------
E)-------------77--777-7----------55-55555555---------------------------
 CORO 1
ACORDES E,B,C#,A
 y se me va la voz
G)----------------------------------------------------------------------
D)----------------------------------------------------------------------
A)-77777777--------44444444---------------------------------------------
E)---------77777777--------55555555-------------------------------------

coro 1
 ACORDES E,B,C#,A
 y no estoy junto a ti
G)----------------------------------------------------------------------
D)----------------------------------------------------------------------
A)-77777777-------------------------------------------------------------
E)---------77777777-5555555555555555------------------------------------

coro 2
acordes E,B,C#,A
 Y SE ME VA LA VOZ
G)----------------------------------------------------------------------
D)----------------------------------------------------------------------
A)-77777777--------44444444---------------------------------------------
E)---------77777777--------55555555-------------------------------------

CORO 2
ACORDES E,B,C#,A
Y ENTRENAME PA TODO
G)----------------------------------------------------------------------
D)----------------------------------------------------------------------
A)-77777777-------------------------------------------------------------
E)---------77777777-5555555555555555------------------------------------

 INTRO 2
ACORDES E,B,A SE REPITE 1 VEZ
G)----------------------------------------------------------------------
D)----------------------------------------------------------------------
A)-77777777-------------------------------------------------------------
E)---------77777777-5555555555555555------------------------------------

 VERSO 2
 ACORDES E,B,C#,A
 en una noche fria
G)----------------------------------------------------------------------
D)----------------------------------------------------------------------
A)-7-7-77--------4-4-44-------------------------------------------------
E)--------7-7-77--------5-5-55------------------------------------------

verso 2
acordes E,B,C#
enseñame la vida
G)----------------------------------------------------------------------
D)----------------------------------------------------------------------
A)-7-7-77--------4-4-44-------------------------------------------------
E)--------7-7-77--------------------------------------------------------


 coro 3
 acordes  E,B,C#,A
  y se me va la voz
G)----------------------------------------------------------------------
D)----------------------------------------------------------------------
A)-77777777--------44444444---------------------------------------------
E)---------77777777--------55555555-------------------------------------

 coro 3
acordes E,B,A
G)----------------------------------------------------------------------
D)----------------------------------------------------------------------
A)-77777777-------------------------------------------------------------
E)---------77777777-5555555555555555------------------------------------

 CORO 4
ACORDES E,B,C#,A
 y se me va la voz
G)----------------------------------------------------------------------
D)----------------------------------------------------------------------
A)-77777777--------44444444---------------------------------------------
E)---------77777777--------55555555-------------------------------------


coro 4
acordes E,B,A
 Y ENTRENAME PA TODO
G)---------------------------------------------------------------------
D)---------------------------------------------------------------------
A)-77777777------------------------------------------------------------
E)---------77777777-5555555555555555-----------------------------------

 CORO 5
ACORDES E,B,C#,A
enseñame a vivir
G)----------------------------------------------------------------------
D)----------------------------------------------------------------------
A)-77777777--------44444444---------------------------------------------
E)---------77777777--------55555555-------------------------------------

 coro 5
acordes E,B,A
 Y ENTRENAME PA TODO
G)----------------------------------------------------------------------
D)--------------------------5/777777------------------------------------
A)-77777777-------------------------------------------------------------
E)---------77777777-55555555--------------------------------------------


INTRO 3
ACORDES E,B,A REPITE 1 VEZ
G)----------------------------------------------------------------------
D)----------------------------------------------------------------------
A)-77777777-------------------------------------------------------------
E)---------77777777-5555555555555555------------------------------------

INTRO 4
ACORDES E,B,A  REPITE UNA VEZ
G)----------------------------------------------------------------------
D)----------------------------------------------------------------------
A)-7--------------------------------------------------------------------
E)-----7----5----5------------------------------------------------------
Este fichero es trabajo propio de su transcriptor y representa su interpretación personal de la canción. El material contenido en esta página es
para exclusivo uso privado, por lo que se prohibe su reproducción o retransmisión, así como su uso para fines comerciales.


Otras canciones del Artista

© LaCuerda.net · Aviso Legal · Privacidad