Acordes de Guitarra » A »Alejandro del Bosque » Restáuranos (Tab)

Restáuranos
Alejandro del Bosque

Letras, Notas, Punteos, Tablaturas y Acordes de Guitarra (Tabs & Chords)

  • Letra y Acordes
         Em7   Em9      Em    Am7     Aadd2     D  Dsus4  D  Dadd2
    e|----3------2------0-----------------------5-----3---2--0-2-------|
    B|----3------0------0-----1-----0-----------3-----3---3------3-----|
    G|----0-0----0-0----0-------0-----0--2------2-2--------------------|
    D|----2------2------2-----------------------0-----0---0--0---------|
    A|----2------2------2-----0-----0----0-----------------------------|
    E|----0------0------0----------------------------------------------|
    
           Gsus4     B7
    e|-----------------------------------------------------------------|
    B|----1--0--------0------------------------------------------------|
    G|----------2------------------------------------------------------|
    D|-----------------------------------------------------------------|
    A|----------------2------------------------------------------------|
    E|----3--3--3------------------------------------------------------|
    
    VERSO 1:      Em7-Em9-Em      Am7               D-Dsus4-D-Dadd2
                  Oh,          Pastor de Israel, escucha
                       G
                  Despierta Tu Poder
    
  • +
    ¡Colabora con nosotros!
    Envíanos tu versión de esta canción

Letra de Restáuranos
Oh, Pastor de Israel, escucha
Despierta Tu Poder
Resplandece, ven y sálvanos.
// Oh Dios restáuranos
Haz resplandecer Tu Rostro
Inclínate a Tu pueblo
Y seremos salvos //
Así, no nos apartaremos de Ti
Vida nos darás
Invocaremos Tu Nombre
VUELVE AL CORO (N VECES)
Espero les guste esta transcripción, es una canción preciosa
que refleja el clamor del hijo de Dios que clama por restauración.
Los insto a escuchar el disco completo, hace rato nos escuchaba un
disco como este con letras y música que impactan, se siente el
trabajo del Espíritu Santo en ellos.
Un saludo a la Iglesia de Dios Voz en El Desierto de Puente Alto.
Santiago de Chile.

Videos de Restáuranos
[ver más videos]

[ver todas las canciones]


© LaCuerda.net · Aviso Legal · Privacidad