Acordes de Guitarra » A »Albertucho » Basura en que nacen flores (Tab)

Basura en que nacen flores
Albertucho

Letras, Acordes y Tabs para Guitarra, Bajo y Ukulele

  •      DO    Sol#/Do    SOL
    e|---------------------------------------------------------|
    B|---------------------------------------------------------|
    G|---5-------5--------5------------------------------------|
    D|---5-------5--------5------------------------------------|
    A|---3-----------------------------------------------------|
    E|-----------4--------3------------------------------------|
    
    
    Estas son las quintas que toca tras cada verso (cuando gritan)
    
         DO      SOL#      SOL
    e|---------------------------------------------------------|
    B|---------------------------------------------------------|
    G|---5-----------------------------------------------------|
    D|---5--------6--------5-----------------------------------|
    A|---3--------6--------5-----------------------------------|
    E|------------4--------3-----------------------------------|
    
    
    
  • +
    ¡Colabora con nosotros!
    Envíanos tu versión de esta canción

Letra de Basura en que nacen flores
Estas son las quintas que toca tras cada verso (cuando gritan)
Aquí empieza la tab de verdad:
La intro y el verso se tocan con esas notas de esta manera,
más o menos:
Exiliado de mi vida, nutrirme quiero de prosa
Soy axioma inútil rosa, que florece compartida… (sigue igual)
Si no sé pues me lo invento, igual que invento canciones.
(distorsión de Sol# a Sol)
Soy basura y sentimientos, basura en que nacen flores.
Mientras la chica grita se toca: Do, Do, Sol# y Sol.
El siguiente verso es igual.
Luego cambia:
Do (se mutea todo el rato) Sol#
Pues sin avisar me inhunda y el unicornio de Silvio
me hace notar mi delirio, macharcármela sin funda…
Y otra vez el grito con Do, Do, Sol# y Sol.
Al final el bajo hace se queda haciendo esto, que son las
mismas notas:
Y fin. Muy, muy sencilla, basta escuchar el ritmo.




[Basura en que nacen flores chords][Basura en que nacen flores cifra]
© LaCuerda.net · aviso legal · privacidad · es · en · pt · contacto
DINAMICO