Acordes de Guitarra » A »Alberto Plaza » Por el hecho de estar sin tí (Tab)

Por el hecho de estar sin tí
Alberto Plaza

Letras, Acordes y Tabs para Guitarra, Bajo y Ukulele

  • e---0--------------------------------------------------
    B-3-3--3-1-0-1-0---2-0----1---1-0----------------------
    G-0-0--------2-2-2----2----2-0-------------0/2/0--0----
    D----------------4--------------2/4/2---2--------2-----
    A-------------------------------------2----------------
    E-3----------------------------------------------------
    
    INTRo en acordes:
    
    G6 - Am - G - D2/F# - Em
    
    
                D/F#   G                        D/F#     E7
    Por el hecho de estar sin tí, he debido inventar,
                     Am      Cm7 - F7/F#      Em
    nuevas formas de combatir             los días,
         D/F#       G                  D/F#    E7
    no pensé que sería así, dolorosa verdad,
                   Am          Cm7 - F7/F#  Em
    aunque no me resigno     to............davía.
    
  • e--------------------------------------------------------     --------
    B-3-3--3-3-1-0-1-0----1-1--------1--0---------------------    -1------
    G-0-0-0-----------2---2-2-----2--------2-0-------2h4-2-0-- X2 -2------
    D-0-----------------0-------2---2----------0h2h0---------     -0------
    A---------------------0---0-------------------------------    --------
    E-3------------------------------------------------------     -------- 
    
                      G                          D     
    Por el hecho de estar sin tí, he debido inventar, 
           E7         Am     Am7  Bm7/A    Em   
    nuevas formas de combatir          los días, 
    D7             G                    D
    no pensé que sería así, dolorosa verdad, 
           E7      Am        Am7  Bm7/A  Em
    aunque no me resigno   to............davía. 
    
    
    Por el hecho de estar sin tí, demasiado castigo, 
    hace frío en mi alma y no hay  abrigo, 
    no pensé que sería así, ahora nada tiene sentido, 
    
  • e-3------------------------------------------------------   --------
    B-3-3--3-3-1-0-1-0---1-1--------1--0---------------------   -1------
    G-0-0-0-----------2--2-2-----2--------2-0-------2/4-2-0-- X2-2------
    D------------------0-------2---2----------0/2/0----------   -0------
    A--------------------0---0-------------------------------   --------
    E-3------------------------------------------------------   --------
    
    Fill
    e-----------------------------
    B--1/0--4-4-------------------
    G-2-----5-5-------------------
    D-------5-4-------------------
    A-------3---------------------
    E-----------------------------            
                       
         RE7                 SOL                        RE*
          Por el hecho de estar sin tí, he debido inventar, 
         MI7*              LAm       Fill       MIm   
          nuevas formas de combatir         los días, 
         RE7             SOL                  RE
    
  • +
    ¡Colabora con nosotros!
    Envíanos tu versión de esta canción

Letra de Por el hecho de estar sin tí
Por el hecho de estar sin tí, he debido inventar,
nuevas formas de combatir los días,
no pensé que sería así, dolorosa verdad,
aunque no me resigno to............davía.
Por el hecho de estar sin tí, demasiado castigo,
hace frío en mi alma y no hay abrigo,
no pensé que sería así, ahora nada tiene sentido,
por el solo hecho de estar si tí, vacío.
El pasado alejándose, y esta pena matándome,
la alegría burlándose, y yo solo apagándome.
Por el hecho de estar sin tí, ya no hay poesía,
El destino otra vez me desafía.
No pensé que sería así, mi esperanza naufraga,
cada noche la soledad, me traga.

No pensé que sería así, y no encuentro consuelo,
que alguien me haga saber que yo, te espero.


(Se repite cuatro veces el coro)
Bm7/A: 23-44-34-15 (bajo en A)




[Por el hecho de estar sin tí chords][Por el hecho de estar sin tí cifra]
© LaCuerda.net · aviso legal · privacidad · es · en · pt · contacto
DINAMICO