Acordes de Guitarra » A »Alberto Oviedo » Jazmín de Luna (Tab)

Jazmín de Luna
Alberto Oviedo

Letras, Acordes y Tabs para Guitarra, Bajo y Ukulele

  •          Dm          A7/6           Dm
    Por esas calles del amor llegaste a mí
          Dm        D7             Gm
    Era verano y tu piel estaba en flor
              A7              Dm
    Jazmín de luna llevaba tu pelo
                 A7               Cm D7
    Ardía en tus ojos la noche de enero
         Gm   A7            Dm
    Y tu vida estallo en mi vida
                     A7      Dm
    Corazón sediento vacío de amor.
    
    Y poco a poco fui perdiéndome en tu piel
    La serpentina de tu boca me atrapo
    Como un fantasma cruzaba los días
    Dejándolo todo por sentirte mía
    Y en el claro perfil de tu nombre
    Aprendió mi sangre a nombrar el amor.
    
    
  •          Em                    Em
    e ------0---0-|-0-2-3-2h3p2-0------0-|-0-2-3-3/7-5h7p5-x-|
    B -----0-0--0-|-------------------0--|-----------------1-|
    G ----0---0-0-|------------------0---|-----------------2-|
    D ---2------2-|-----------------2----|-----------------2-|
    A --2-------2-|----------------2-----|-----------------0-|
    E -0--------0-|---------------0------|-----------------x-|
    
    
                            F#7         C7  Am7 B7
    e -5-7-8-7-5/3-3-5-3/2-2-2-|-2-5-3-2-------------|
    B -----------------------2-|-----------5---1---0-|
    G -----------------------3-|---------------------|
    D -----------------------2-|----------5---2---1--|
    A -----------------------4-|---------3---0---2---|
    E -----------------------2-|---------------------|
    
                       Em
    e 0-2-0---------0---0-----0-|
    B ------4-2-4-5--0---0---0--|
    
  • +
    ¡Colabora con nosotros!
    Envíanos tu versión de esta canción

Letra de Jazmín de Luna
Por esas calles del amor llegaste a mí
Era verano y tu piel estaba en flor
Jazmín de luna llevaba tu pelo
Ardía en tus ojos la noche de enero
Y tu vida estallo en mi vida
Corazón sediento vacío de amor.
Y poco a poco fui perdiéndome en tu piel
La serpentina de tu boca me atrapo
Como un fantasma cruzaba los días
Dejándolo todo por sentirte mía
Y en el claro perfil de tu nombre
Aprendió mi sangre a nombrar el amor.
Y te vi llorar
Te oí gritar mi nombre enamorada
Y fue tu voz una caliente puñalada
Que me quemo en el adiós porque e amaba
Y en tu boca de azúcar quemada
Se fue para siempre mi sueño de amor.
Celeste diosa del amor yo te creí
Con tu sonrisa y tu clara angelical
Pero es que el cielo también tiene espinas
Con fulgor de ángel con temblor de niña
Y tu vida estallo en mi vida
Corazón sediento vacío de amor.
Nos prometimos luchar juntos hasta el fin
Ya tu egoísmo lo pudiste resistir
Al primer golpe abriste las alas
Y volaste lejos más allá del alma
Y tu vida se llevo mi vida
Trenzada en el vuelo de tu desamor.
ACORDES:

Video de Jazmín de Luna
[]




[Jazmín de Luna chords][Jazmín de Luna cifra]
© LaCuerda.net · aviso legal · privacidad · es · en · pt · contacto