Acordes de Guitarra » A »Alas de Aguila » Alas de aguila (Tab)

Alas de aguila
Alas de Aguila

Letras, Acordes y Tabs para Guitarra, Bajo y Ukulele

  •  D                                                    C
        vencedor mas que vencedor, vencedor mas que vencedo-or
            D
        vencedor mas que vencedor, vencedor en Jesus
    
    Intro2:
    
      G C D - G C Am-CD - G C D - Bm Em - C D G(D-DSUS-G)
     IGUAL AL CORO
    
    VERSO1:
     E      A            E              A        E                 A
    Hey mi amigo se que ya no eres un niño muy pronto saldrás del nido
            D            B
    para triunfar, para triunfar
    E             A               E          A                E
    Tu estas en esa edad en que todo empieza a cambiar muy pronto
                   A           D          B
    el vuelo emprenderas preparate, preparate
       C              D                       C                D
    
  • G
    ///Vencedor mas que vencedor/// Vencedor en Jesús
    
    Intro: G C D  G C    C D    G C D  Em  C D G
    
     E        A              E              A          E
    Hey, mi amigo, yo se que ya no eres un niño, muy pronto,
                 A             D          Badd9
    saldras del nido, para triunfar, para triunfar.
    E            A                E               A            E
    Tu estas en esa edad, en que todo empieza a cambiar, muy pronto
                  A       D          Badd9
    el vuelo emprenderas, preparate, preparate.
    
        C               D                  C               D
    y no, no te desanimes si algo no sale bien, estas aprendiendo y creciendo
             F                   C                     D
    por que DIOS, El tiene un proposito glorioso para ti.
    
    
    
  • Segunda parte dela primera intro
    
    E----10-8------10-8-----------------X4
    B-10------10-8------10v---8-10-7v---
    G-----------------------9---------7-
    D-----------------------------------
    A-----------------------------------
    E-----------------------------------
    
    segunda intro misma secuencia al coro
    
    E-6s7-7-10-8-7----7-7-10-12v--8-8-7-7-------
    B--------------10---------------------8v-10-
    G-------------------------------------------
    D-------------------------------------------
    A-------------------------------------------
    E-------------------------------------------
    
    E-6s7-7-10-8-7----------7-8-7--------------787-8-7-10-7--------------------
    B-------------10v--8-10-------10-10-8--8-10--------------10-7-7s8-6s7-7s8-8
    G--------------------------------------------------------------------------
    D--------------------------------------------------------------------------
    A--------------------------------------------------------------------------
    E--------------------------------------------------
  • +
    ¡Colabora con nosotros!
    Envíanos tu versión de esta canción

Letra de Alas de aguila
vencedor mas que vencedor, vencedor mas que vencedo-or
vencedor mas que vencedor, vencedor en Jesus
Intro2:
IGUAL AL CORO
VERSO1:
Hey mi amigo se que ya no eres un niño muy pronto saldrás del nido
para triunfar, para triunfar
Tu estas en esa edad en que todo empieza a cambiar muy pronto
el vuelo emprenderas preparate, preparate
y no, no te desanimes si algo no te sale bien estas aprendiendo
y creciendo por que Dios tiene un propósito glorioso
para ti,.. por que tienes
coro1:
Alas de águila.. para volar tan alto como quieras
alas de águila.. conquistaras las alturas
de los cielos en jesus
verso2:
Tu no te imaginas el potencial que hay en tu vida creatividad
sin medida, anímate, anímate
Dios te dio talento que te darán tu sustento
pero guarda bien sus mandamientos y tu prosperaras y tu prosperaras
y no, no te desanimes si algo no te sale bien, sigue adelante
estas aprendiendo y madurando porque Dios tiene un propósito
glorioso para ti, para ti,.. por que tienes
coro2:
Alas de águila.. para volar atan alto como quieras
alas de águilas.. conquistaras la montaña mas difícil en Jesús
coro3:
si amenaza una tormenta a tu ser deja que el gran creador
te impulse con su amor
DESPUES EL SOLO Y EL CORO OTRA VES
LAS INTROS Y SOLO ESTAN EN LA HOJA DE TABLATURAS
cualquier pregunta SOBRE la cancion u otra escribanme
marvin.martinezcastro@hotmail.com




[Alas de aguila chords][Alas de aguila cifra]
© LaCuerda.net · aviso legal · privacidad · es · en · pt · contacto
DINAMICO