Acordes de Guitarra » A »Alakran » Lucero (Tab)

Lucero
Alakran

Letras, Acordes y Tabs para Guitarra, Bajo y Ukulele

  • e|------------------------|
    B|--10----10-10-----------|
    G|--9-----9--9------------|
    D|--7-7-7-7--7--7-7-7-7-7-|
    A|------------------------|
    E|------------------------|
    
    Guitarra 2
    e|------------------------|
    B|------------10-10-10----|
    G|--(14)------------------|
    D|-------(12)-------------|
    A|------------------------|
    E|------------------------|
    
    Teclado:
    e|-------0-------------------|
    B|-----1-------3-----1---0-1-|
    G|---2-------2-----2---2-----|
    D|-2-------2-----2-----------|
    
  • +
    ¡Colabora con nosotros!
    Envíanos tu versión de esta canción

Letra de Lucero
Guitarra 2
Teclado:
Después entran con distorsión:
Guitarra 1:
Guitarra 2:
Brisa ante mí, jugará con su pelo
Huele a jazmín, me dibuja su cuerpo
Pasará ante mí como un sueño
La oigo caminar, y mi alma se asoma
Quisiera gritar, pero un nudo me ahoga
No sabría que decir a mi diosa
Entre nieblas surgió (una luz que me habla)
Me describe a mi amor y se va con el alba
Jamás se fijará en mí, jamás sabrá que existí
Jamás oirá este lamento que llevo tan dentro de mí
No sé como es aunque sueño su cara
Me muero por ver si con suerte hoy habla
Oír su tierna voz, eso me basta
El solo es una gonorrea para hacerlo bien, pero asi esta mas
O menos...
Entre nieblas surgió...
Esto es lo que se escucha mientras el cantante se esta
Despidiendo:
Termina haciendo el intro

Video de Lucero
[]




[Lucero chords][Lucero cifra]
© LaCuerda.net · aviso legal · privacidad · es · en · pt · contacto