Acordes de Guitarra » A »Aditus » Victoria (Tab)

Victoria
Aditus

Letras, Acordes y Tabs para Guitarra, Bajo y Ukulele

  • Intro: D5
    
    Todos los muchachos de la cuadra
    por mi suerte me felicitaban
    D
    tenia yo la chica mas hermosa
    Bm                   A
    era súper, era otra cosa.
    
    D                         Bm
    Y hoy que no la tengo me arrepiento
                                 A
    de haber desperdiciado ese momento.
    
    D
    Su ojos eran dulces y brillantes
    su voz era serena y excitante
    con mi actitud de niño arrogante
    Bm                     A
    me cambio por una beca en un instante.
    
  • VERSION EN VIVO:
    
    intro: (verso 1 y 2)
    
    G---------------------
    D--------------------- X 4 
    A--5-5-5-5-5-5-5-5----
    E---------------------
    
    coro:
    
    G------------------------------------------------
    D------------------------------------------------ X 2
    A-5-5/--------------4--5-5-5/--------------------
    E-----3-3/5-5-5-5/7---------3-3/5-5-5-5/7/5------
    
    verso 3:
    
    G-----------------------------------------------------------
    D-----------------------------------------------------------
    A-----------------------------------------------------------
    E-5-5-5-5-5-5-5-5-5-5-5-5-5-5-5-7-7-7-7-7-7-7--3-3-3-3-3-3-3
    
    luego vuelves al coro.
  • +
    ¡Colabora con nosotros!
    Envíanos tu versión de esta canción

Letra de Victoria
Todos los muchachos de la cuadra
por mi suerte me felicitaban
tenia yo la chica mas hermosa
era súper, era otra cosa.
Y hoy que no la tengo me arrepiento
de haber desperdiciado ese momento.
Su ojos eran dulces y brillantes
su voz era serena y excitante
con mi actitud de niño arrogante
me cambio por una beca en un instante.
Hey oh oh oh Victoria
ah ah ah ah regresa
Hey oh oh oh Victoria
Ah ah ah ah regresa.
No puedo soportar vivir sin ella
camino dando tumbos tras su huella
donde quiere que te encuentres
por favor regresa ya, ya, ya, ya.
Hey oh oh oh Victoria
ah ah ah ah regresa
Hey oh oh oh Victoria
Ah ah ah ah regresa.
Donde quiera que te encuentres
por favor regresa pronto
oh Victoria, oh Victoria
no puedo estar sin ti.
Hey oh oh oh Victoria
ah ah ah ah regresa
Hey oh oh oh Victoria
Ah ah ah ah regresa.




[Victoria chords][Victoria cifra]
© LaCuerda.net · aviso legal · privacidad · es · en · pt · contacto
DINAMICO