Acordes de Guitarra » A »Aca Seca Trío » Maricón (Tab)

Maricón
Aca Seca Trío

Letras, Acordes y Tabs para Guitarra, Bajo y Ukulele

  • ||-----------------|------------------|------------------|------------------|
    ||-----------------|------------------|------------------|------------------|
    ||-----------------|--1------4--------|--2------5--------|--4------6--------|
    ||---------------4-|---------3------2-|---------4------2-|---------4------6-|
    ||-------------2---|------------------|------------------|------------------|
    ||-----------0-----|---------4----2---|---------5----4---|---------5----6---|
    
    
    --------------------|---------------|---------------|-----------|-----------|
    --4--------4--------|--4------------|--2------------|-----------|--0--------|
    --6--------6--------|--4------------|--4------------|--2--------|--2--------|
    ---------5--------4-|---------------|--3------------|--2--------|--1--------|
    -------6------------|---------------|--4------------|--4--------|--2--------|
    ----------------4---|---------------|---------------|--2--------|-----------|
    
    
    ----7--------0--4--|----------2--------|------------------|----------0-------|
    ----------0--------|----2--5-----------|----4--------4--5-|-------0----------|
    -------------------|----------------1--|-4--------6-------|----2-----------2-|
    -------6-----------|-2-----------------|------------------|------------------|
    
  • +
    ¡Colabora con nosotros!
    Envíanos tu versión de esta canción

Letra de Maricón
Letra (por Juan Quintero)
Me han dicho por ahí
que te han visto triste y mal de golpe y porrazo
quejándote a cada paso
arisco y malhumorado.
Y cuentan que andás
moreteao', con hambre, miedo, fiebre y calambre
ahogao' en tu mala sangre
sin un minuto de paz.
Y en vez de fijarte cómo te has a curar
te has encerrao' a sobarte el lomo, compay
relajá la guardia, buscá con calma y olvide el:
¡ay, basta, que todo me ataca!
te digo en serio compay
alzá la frente y dejá
que el sol te pegue en la cara.
Ay, ella, mirá
cómo llora y chilla, peor que un nene de pecho
el nunca está satisfecho
con todo lo que le dan.
Quiere eso, o no
o ya tiene, o sobra, o falta cinco pal peso
le dan y le mira el precio
después no lo quiere usar.
Y el pan ganao' de tu frente ya ha de llegar
no te agarrés con la pobre gente, compay
agradezca el techo, el latir del pecho y olvida el:
¡ay, dame, que todo me falta!
es que yo no entiendo compay
de qué es lo que te quejás
si hay una dueña pa tu alma.
Saludos desde Chile!!




[Maricón chords][Maricón cifra]
© LaCuerda.net · aviso legal · privacidad · es · en · pt · contacto