Tablatura para Bajo de Abuelos de la Nada: Lunes por la Madrugada
Conexión · Inscripción
Letras y Acordes
Pantalla Completa
Imprimir
Versión Texto
Añadir Favorito
Otras Versiones

Mostrar Diagramas
Desfile Automático
Formato del Texto


Lunes por la Madrugada(BAJ)

Abuelos de la Nada

calidad:
abue0052
AUTOR: Abuelos de la Nada  corregir
ALBUM: Mil Horas (1987)
Enviado por Ariel
***************************************************************
Como vi que a la otra version le faltaban un par de cosas aca
la mando completa:
***************************************************************

Base en general(Intro, Verso, Solo de saxo):

|----------------||----------------||----------------||----------------|
|----------------||----------------||----------------||----------------|
|----------------||----------------||4-4-4-4-4-4-4-4-||4-4-4-4-4-4-4-4-|
|5-5-5-5-5-5-5-5-||5-5-5-5-5-5-5-5-||----------------||----------------|

|----------------||----------------||----------------||----------------|
|----------------||----------------||----------------||----------------|
|5-5-5-5-5-5-5-5-||5-5-5-5-5-4-----||----------------||----------------|
|----------------||-----------5-3-3||3-2-3-0-0-2-0-3-||0-5-------------|


Estribillo:
|----------------||----------------||----------------||----------------|
|----------------||----------------||----------------||----------------|
|----4-5-5-4----7||4-4-4-2-2-2-2---||2-2-2-2-2-2-2-2-||2-2-------------|
|7-7--------5-5--||----------------||----------------||----3-3-3-3-3-3-|

|----------------||----------------|
|----------------||----------------|
|----------------||----------------|
|3-3-3-3-3-3-3-3-||3-3-------------|

Final(Luego del ultimo estribillo, mantiene esto hasta el fin del tema):

|----------------|
|----------------|
|----------------|
|5-5-5-5-5-5-5-5-|

****************************************************************
Bueno eso es todo, escuchen el tema para ver bien como tocarlo.

Cualquier duda manden mail a arielzajac@gmail.com

****************************************************************
Saludos
Este fichero es trabajo propio de su transcriptor y representa su interpretación personal de la canción. El material contenido en esta página es
para exclusivo uso privado, por lo que se prohibe su reproducción o retransmisión, así como su uso para fines comerciales.


© LaCuerda.net · Aviso Legal · Privacidad