Acordes de Guitarra » A »Abadon » En busca de tu nombre (Tab)

En busca de tu nombre
Abadon

Letras, Acordes y Tabs para Guitarra, Bajo y Ukulele

  •          F#m                     E
    Siempre eh estado buscando una hoguera,
            D           A            E
    que me abrace y me queme desde afuera.
           F#m                   E
    sin embargo el camino es tan largo,
           D                A     E
    y la paciencia es mi enemiga.
         F#m                   E
    Pero sé que aquel día lo espero,
            D          A            E
    tras el vasto designio de la vida.
    
    
    Estribillo:
    
          D                F#m
    Y voy atado cada vez un nuevo sentimiento,
             E                                A
    y por momentos, despierto a la absurda verdad,
    
  •                                AbADON
                            EN BUSCA DE TU NOMBRE
    
       Letra y Música :  Freddy Palacios.
    
       intro
       F#m                            F#m
    E /-------2-------5------2------/-------2-------5------2---------
    B /-----2---2-------2------2----/-----2---2-------2------2-------
    G /---2-------2-------2------2--/---2-------2-------2------2-----
    D /-----------------------------/--------------------------------
    A /-4---------------------------/-4------------------------------
    E /-----------------------------/--------------------------------
        D
    E /-2-----2-----2-----2---------/-1-----1-----1-----1------------
    B /---3-----3-----3-----3-------/---2-----2-----2-----2----------
    G /-----2-----2-----2-----2-----/-----0-----0-----0-----0--------
    D /-----------------------------/--------------------------------
    A /-----------------------------/--------------------------------
    E /-----------------------------/--------------------------------
    
  • +
    ¡Colabora con nosotros!
    Envíanos tu versión de esta canción

Letra de En busca de tu nombre
Siempre eh estado buscando una hoguera,
que me abrace y me queme desde afuera.
sin embargo el camino es tan largo,
y la paciencia es mi enemiga.
Pero sé que aquel día lo espero,
tras el vasto designio de la vida.
Estribillo:
Y voy atado cada vez un nuevo sentimiento,
y por momentos, despierto a la absurda verdad,
seguiré hasta encontrar una señal al destino,
en forma sublime, así mi historia empezara.
¡Donde estas! ¡A dónde vas!
aparece un momento y tu voz escuchare.
¡Gritare! ¡Te amaré!
cuando tu cuerpo se encienda en mí.
¡Aparece ya! ¡Aparece ya!
que así por fin mi vida completa estará.
Siento al tiempo ahogando mi fuerza,
al ver que a mi lado tú no estás.
Si mis manos reflejan las líneas,
en este momento sabré la verdad.
Y si encuentro un vacio perpetuo,
Tal vez jamás tú nacerás.
Estribillo:

Video de En busca de tu nombre
[]




[En busca de tu nombre chords][En busca de tu nombre cifra]
© LaCuerda.net · aviso legal · privacidad · es · en · pt · contacto