Tablatura para Bajo de La 5a. estación: Tu peor error
Conexión · Inscripción
Letras y Acordes
Pantalla Completa
Imprimir
Versión Texto
Añadir Favorito
Otras Versiones

Mostrar Diagramas
Desfile Automático
Formato del Texto


Tu peor error(BAJ)

La 5a. estación

calidad:
5est0204
AUTOR: La 5a. estación  corregir
ALBUM: desconocido
Enviado por Ricardo
Hace poco empese a tocar con una bandilla pop y ps tengo
ke sakar estas rolillas ahi le vas como las toko! :) ahi le meten
sus adornos...... Gracias a La Cuerda.Net me a sakado de muchos pedos
No esta al 100 % peroo ahi es un aliviane :)


Intro

G|------------------------------------------------------------------
D|------5555-----7777----99---77--55555-----------------------------
A|--5-5-------55----------------------------------------------------
E|------------------------------------------------------------------
Verso
G|------------------------------------------------------------------
D|------5555-----7777----99---77--55555-----------------------------
A|--5-5-------55----------------------------------------------------
E|------------------------------------------------------------------

Coro y Solo

G|------------------------------------------------------------------
D|------5555-----7777----99---77--55555-----------------------------
A|--5-5-------55----------------------------------------------------
E|------------------------------------------------------------------


Puente
G|------------------------------------------------------------------
D|-9999999---7777777--5555555----7--999999----777777---555555-------
A|------------------------------5-----------------------------------
E|------------------------------------------------------------------

Esperoo y estoo les ayudee
Este fichero es trabajo propio de su transcriptor y representa su interpretación personal de la canción. El material contenido en esta página es
para exclusivo uso privado, por lo que se prohibe su reproducción o retransmisión, así como su uso para fines comerciales.

© LaCuerda.net · Aviso Legal · Privacidad