Acordes de Guitarra » Z »La Zurda » Tafi del valle (Tab)

Tafi del valle
La Zurda

  • Letra y Acordes
    E|-----------0-0--5-5-----5-5--7-7-----5-7-5--------------
    B|-------2-2----------5-5----------5-5-------5-5----------
    G|--2-2---------------------------------------------------
    D|--------------------------------------------------------
    A|--------------------------------------------------------
    E|--------------------------------------------------------
    
    E|-----------0-0--5-5-----5-5--9-9-----5-7-5--7-7---------
    B|-------2-2----------5-5----------5-5--------------------
    G|--2-2---------------------------------------------------
    D|--------------------------------------------------------
    A|--------------------------------------------------------
    E|--------------------------------------------------------
    
    -Repite punteo-
    
    A              D   E                 A
    Callejuelas sin fin casa de barrio y paja
    Caballos que relinchan y horneros que cantan
    Perro que ladra a un hombre que recién llega en chata
    
  • +
    ¡Colabora con nosotros!
    Envíanos tu versión de esta canción

Letra de Tafi del valle
-Repite punteo-
Callejuelas sin fin casa de barrio y paja
Caballos que relinchan y horneros que cantan
Perro que ladra a un hombre que recién llega en chata
Que carga su equipaje y que se va pa las casa
La escuelita cerró ya están de vacaciones
No ha quedado ningún niño pero sí sus corazones
Hombres están hachando un árbol monte adentro
Ya se les hizo la hora porque les llega el invierno
Viento del norte sopla en las calles
bailan felices en tafi del valle
RIFF
Y hace que brille el sol y el pueblo está contento
Desprendiendo el perfume que deja las flores del cerro
Y hace que brille el sol y el pueblo esta contento
Ahí se levanta un viento que da el suspiro a este cerro
Viento del norte sopla en las calles
bailan felices en tafi del valle



© LaCuerda.net · aviso legal · privacidad · contacto