Acordes de Guitarra » Y »Yuri Tejeda » Ojos de sol (Tab)

Ojos de sol
Yuri Tejeda

Letras, Acordes y Tabs para Guitarra, Bajo y Ukulele

  •           Am            D
    y te veo tan bonita esta mañana
             Bm7                 E
    que te hiciste en el cabello te ves muy bien
    
             Am              D
    Me hacen falta tu mirada y tus palabras
           Bm                  E
    y esas tardes antes del anochecer
    
    
    
            Am                D
    y sentirte respirar y de tu mano caminar
       Bm7(Bm)            E            Am
    una mañana , que pueda desperta en tu mirada
          D                    Bm7
    en tus ojos de sol,  que me desgarran
            E
    la piel y el corazon.
    
  •   Am7  D  Bm7  E  E7
    e--3---2---2---0---0---
    B--1---3---3---0---3---
    G--0---2---2---1---1---
    D--2---0---4---2---2---
    A--0---X---2---2---2---
    E--X---X---2---0---0---
    
    [INTRO:] estos arpegios se hacen sobre
             las posiciones del diagrama anterior.
    
       Am7                                   D
    e---3------0-2-3-2-0-3-------0-2-2h3p2-0-2---2---2-----0---
    B-------1-----------------1--------------------------3-----
    G-----0-----------------0-------------------2--2---2-------
    D----------------------------------------0~~---------------
    A---0------0~~~~-----0-------0~~~~-------------------------
    E----------------------------------------------------------
    
       Bm7                E  E7
    
  • +
    ¡Colabora con nosotros!
    Envíanos tu versión de esta canción

Letra de Ojos de sol
y te veo tan bonita esta mañana
que te hiciste en el cabello te ves muy bien
Me hacen falta tu mirada y tus palabras
y esas tardes antes del anochecer
y sentirte respirar y de tu mano caminar
una mañana , que pueda desperta en tu mirada
en tus ojos de sol, que me desgarran
la piel y el corazon.
y te extraña mi guitarra y estas manos
son las tres de la mañana no puedo dormir
ven que aqui esperare
que salga el alba, en medio de tu piel
y sentirte respirar y de tu mano caminar
una mañana , que pueda despertar en tu mirada
en tus ojos de sol, que me desgarran
la piel y el corazon.
ven que aqui esperare
que salga el alba, en medio de tu piel
y sentirte respirar y de tu mano caminar
una mañana , que pueda despertar en tu mirada
en tus ojos de sol, que me desgarran
la piel y el corazon.
se que pronto volveras, cuando vuelva a despertar
una mañana.

Video de Ojos de sol
[]




[Ojos de sol chords][Ojos de sol cifra]
© LaCuerda.net · aviso legal · privacidad · es · en · pt · contacto