Acordes de Guitarra » Y »Yuri Méndez » Solo me quedas tú (Tab)

Solo me quedas tú
Yuri Méndez

Letras, Acordes y Tabs para Guitarra, Bajo y Ukulele

  •  B |--4----4------|--4----4------|--4----4------|
     G |--------------|--------------|--------------|
     D |--------------|--------------|--------------|
     A |--------------|--------------|--------------|
     E |--------------|--------------|--------------|
    --/
    
    
    |-----4--4-3-1-----4----4-4---|
    |--4-----------4-2----4-------|
    |-----------------------------|
    |-----------------------------|
    |-----------------------------|
    |-----------------------------|
    
    
    |-----8---8-8--|-----6---6-6--|-----6---6-6--|
    |--4----4------|--4----4------|--4----4------|
    |--------------|--------------|--------------|
    |--------------|--------------|--------------|
    
  • +
    ¡Colabora con nosotros!
    Envíanos tu versión de esta canción

Letra de Solo me quedas tú
--/
* Repetir 2 veces
Se puede matar solo con palabras
Palabras que vuelan y te parten la espalda
Se puede matar con un solo beso
Con buena cara, cómo no, a destiempo
Ahora solo me quedas tú, solo me quedas tú
Y si al doblar una esquina te vas de mi vida
¿Dónde irás?
Ahora solo me quedas tú
+++++++++++++++++++++++++++++++++++++++++++++++
+++ A partir de aquí son los mismos acordes +++
+++++++++++++++++++++++++++++++++++++++++++++++
Peor que matar es cerrar los ojos
Mover el cuchillo si se clava en otro
Peor que matar es no dar la cara
Dejar que escampe y volver a la cama
Ahora solo me quedas tú, solo me quedas tú
Y si no voy con cuidado, si doy otro paso en falso
No lo verás
Ahora solo me quedas tú
Hay que verlo para creerlo
Se han vuelto locos, todos locos, no
Ahora solo me quedas tú, solo me quedas tú
* Solo
Y si al doblar una esquina te vas de mi vida
¿Dónde irás?
Ahora solo me quedas, solo me quedas, solo me quedas tú

Video de Solo me quedas tú
[]




[Solo me quedas tú chords][Solo me quedas tú cifra]
© LaCuerda.net · aviso legal · privacidad · es · en · pt · contacto