Acordes de Guitarra » Y »Yamana » Ven a bailar (Tab)

Ven a bailar
Yamana

Letras, Acordes y Tabs para Guitarra, Bajo y Ukulele

  •    G                 Bm
      corazon.mi vida ven a bailar
                    C
      dame una oportunidad
                    D
      que te quiero enamorar 
     
     (solo)... G  C  D (X2)
      G                           D              
      dame un poquitito de tu corazon 
                                  Em
      tu carocito,el calor de tu piel lo necesito
               C              D
      y mia seras,seras,no escaparas
    
      sueño con tenerte,mirarte a los ojos 
      convencerte,de que seras mia y simplemente
      te quiero amar,besar y algo mas
      
      corazon... 
    
  • G                    D  
    (a)Corazón mi vida ven a bailar
                C     
    dame una oportunidad
                  D  
    q te quiero enamorar. 
    
      G
    (b)Dame un poquitito 
                D
    de todo tu amor tu calorcito
                   Em 
    el fuego de tu piel lo necesito
            C              D
    y mía serás serás no escaparas. 
    
    
    (b)Sueño con tenerte
     mirarte a los ojos convencerte
     de q serás mía y simplemente
    
  • Buena suerte, espero que sea útil.  
    
    
    e|--15-15--|---14-14--|---12-12---12-12--|--14-15-17^^^^^^^^^^----------|
    B|--15-15--|---15-15--|---13-13---13-13--|--15-17-15^^^^^^^^^^----------|
    G|---------|----------|------------------|------------------------------|
    D|---------|----------|------------------|------------------------------|
    A|---------|----------|------------------|------------------------------|
    E|---------|----------|------------------|------------------------------|
    
    
    e|-7-7-7-8--10-8--7------|--------------------|--7-7-7-8--10-8-7--------|
    B|-8-8-8-10-12-10-8-10-7-|-8---8/9-/10----10--|--8-8-8-10-12-10-8-10-7--|
    G|------------------11-8-|-9---9/10/11----11--|-------------------11-8--|
    D|-----------------------|---10--------12-----|-------------------------|
    A|-----------------------|--------------------|-------------------------|
    E|-----------------------|--------------------|-------------------------|
    
    
    e|----------------------|------10-15-----10-15-----10-15-----10-15------|
    
  • +
    ¡Colabora con nosotros!
    Envíanos tu versión de esta canción

Letra de Ven a bailar
(a)Corazón mi vida ven a bailar
dame una oportunidad
q te quiero enamorar.
(b)Dame un poquitito
de todo tu amor tu calorcito
el fuego de tu piel lo necesito
y mía serás serás no escaparas.
(b)Sueño con tenerte
mirarte a los ojos convencerte
de q serás mía y simplemente
te quiero amar, besar y algo mas...
(a)Corazón mi vida ven a bailar
dame una oportunidad
q te quiero enamorar...
(a)Eres mi obsesión,
mi cielo, mi duda, mi tentación
ternura, mi sueño, mi perdición, locura
te veo en cada rincón.
(b)Dame un poquitito
de todo tu amor tu calorcito
el fuego de tu piel lo necesito
y mía serás serás no escaparas.
(a) y (b) indican que repeticion de
acordes hay que hacer! la cancion
tiene onda si se la toca con ritmo...Exitos!

Video de Ven a bailar
[]




[Ven a bailar chords][Ven a bailar cifra]
© LaCuerda.net · aviso legal · privacidad · es · en · pt · contacto