Acordes de Guitarra » X »Xtreme » Hiliana (Tab)

Hiliana
Xtreme

Letras, Acordes y Tabs para Guitarra, Bajo y Ukulele

  • Am-F-C-G x4
    
           C
    Te conocí por mi esposa.
           G
    De ti me enamore.
               Em            Am
    En ese instante mi mundo se complico.
             C
    Y cuando te diste cuenta,
          G
    Nunca te volví a ver.
          Em                 Am
    Tú no sabes cuánto eso me angustio.
    
        F   G
    Hiliana,
              Em    Am
    Estoy tan solo,
                F    G
    
  • hola ¡¡¡¡¡¡
    a todos los bachateros.......
    pues aqui les va la tab del intro de la cancion
    Xtreme - Hiliana
    chequenla esta super sencilla solo escuchen bien la cancion.
    
    
    INTRO
    
    e-------------------------------------
    B-------9----11-11-11------13-14------
    G----10-------------------------------
    D-------------------------------------
    A-------------------------------------
    E-------------------------------------
    
    
    e------------------------------13--11-
    B----11--13-------14-14-14------------
    G-------------------------------------
    D-------------------------------------
    A-------------------------------------
    E-------------------------------------
    
    
    e-------------------------------------
    B-------9----11-11-11------13-14------
    G----10-------------------------------
    D-------------------------------------
    A-------------------------------------
    E-------------------------------------
    
    
    
    e---11--13--------16-16-16-----13--11-
    B-------------------------------------
    G-----------------------------
  • +
    ¡Colabora con nosotros!
    Envíanos tu versión de esta canción

Letra de Hiliana
Te conocí por mi esposa.
De ti me enamore.
En ese instante mi mundo se complico.
Y cuando te diste cuenta,
Nunca te volví a ver.
Tú no sabes cuánto eso me angustio.
Hiliana,
Estoy tan solo,
Pensando en ti,
Me vuelvo loco.
Hiliana sé que tú también me extrañas.
Y sé que sientes cuando mi alma te llama.
El trató de buscarte,
Hasta flores mandó,
Para que tú supieras de su amor.
Y aunque es incorrecto,
Dime qué puedo hacer,
El solo quiere que tu seas mi mujer.
Hiliana,
Estoy tan solo,
Pensando en ti,
Me vuelvo loco.
Hiliana sé que tú también me extrañas.
Y sé que sientes cuando mi alma te llama.
Hiliana,
Estoy tan solo,
Pensando en ti,
Me vuelvo loco.
Hiliana sé que tú también me extrañas.
Y sé que sientes cuando mi alma te llama.




[Hiliana chords][Hiliana cifra]
© LaCuerda.net · aviso legal · privacidad · es · en · pt · contacto
DINAMICO