Acordes de Guitarra » W »Willy Noriega » Corazón Mío (Tab)

Corazón Mío
Willy Noriega

Letras, Acordes y Tabs para Guitarra, Bajo y Ukulele

  • (=A=)
    D                      G
    No hay corazón en este mundo
    Em        A                 D
    que pueda amarte mas que el mio
    D                     G
    late por ti para quererte..
    Em        A            D
    y no sentirse tan vacio.. 
      Bm       Em      A       D
    corazón..corazón..corazón mio..
    
    (=A=)
    No hay corazón sobre la tierra
    mas terco que este loco amigo..
    vive empeñado en que lo quieras
    y que le entregues tu cariño
    corazón..corazón..corazón mio...
    
    (=B=)
    
  • e|-------5-----5---5--3-2-3---------------3--3------3----
    B|-----3-----3---3----------0-------3---0----0----0------
    G|---4-----4----------------------4---4---------0--------
    D|-0----------------------------5------------------------
    A|-------------------------------------------------------
    E|-------------------------------------------------------
    
    e|-2-3-2----------------0-2---|
    B|-------3-5-2-----2-3--------|
    G|----------------------------|
    D|----------------------------|
    A|----------------------------|
    E|----------------------------|
    
    Parte 1
    
    D                      G
    No hay corazón en este mundo
    Em        A                 D
    que pueda amarte mas que el mío
    
  • E||-----------5----------5--|--------------5-----3--2--|
    B||--------2----------2-----|--------2-----------------|
    G||-----2----------2--------|-----2-----2-----2--------|
    D||--0----------------------|--0-----------------------|
    A||-------------------------|--------------------------|
    E||-------------------------|--------------------------|
    
    
    
    --2-----3----------------|---------------5------|--3---------------3----|
    -----------0----------0--|--L------------3------|--0--------0---------0-|
    -----0-------------2-----|----------2-----------|--------0--------------|
    ----------------0--------|-------0--------------|-----2-----------------|
    -------------------------|----------------------|-----------------------|
    --3--------3-------------|---------------2------|--0--------------------|
    
    
    
    --------------3-----2--0--|--------0---------------|--------------------|
    --------0-----------------|--3--------2------------|--2--------3-----5--|
    
  • +
    ¡Colabora con nosotros!
    Envíanos tu versión de esta canción

Letra de Corazón Mío
No hay corazón en este mundo
que pueda amarte mas que el mio
late por ti para quererte..
y no sentirse tan vacio..
corazón..corazón..corazón mio..
No hay corazón sobre la tierra
mas terco que este loco amigo..
vive empeñado en que lo quieras
y que le entregues tu cariño
corazón..corazón..corazón mio...
Ignora él la realidad
y mi razón le quiere hablar
le dice que no...
que no es verdad que tu no le amas...
pero el insiste y no le escucha
y terco asi sigue en la lucha
fiel a su causa a su ideal..
Mi corazón pobre inocente...
nunca aprendio a decir mentiras
dice que tu sigues presente..
y que eres parte de su vida
corazón..corazón... loco suicida.
Voy a dejar al corazón
que siga con su devoción
y a mi razón le pedire
que lo perdone...
por que abriria en él la herida
si tu te escapas de su vida
te necesita entiendelo..
No hay corazón
en este mundo que pueda
amarte mas que el mio
late por ti para quererte
y no sentirse tan vacío
corazón..corazón..corazón mio...

Video de Corazón Mío
[]




[Corazón Mío chords][Corazón Mío cifra]
© LaCuerda.net · aviso legal · privacidad · es · en · pt · contacto