Acordes de Guitarra » V »Visceral » Eskape (Tab)

Eskape
Visceral

Letras, Acordes y Tabs para Guitarra, Bajo y Ukulele

  • D|--------------------------------+--------------------------------|X4
    A|--------------------------------+--------------------------------|
    F|--------------------------------+--------------------------------|
    C|-------/9--------4/9----7-------+--------/9--------4/9-----------|
    G|--2-2-2/7----2-2-2/7----5-8-7---+---2-2-2/7----2-2-2/7----7-8-9--|
    D|--0-0-0------0-0----------6-5---+---0-0-0------0-0--------5-6-7--|
        . . .      . .                    . . .      . .        
    
    F5 F5 F5 F5/ G5 G5 G5 G5/ D5# D5# D5# D5#
    BASE:       
    D|--------------------------------------------------------------|
    A|--------------------------------------------------------------|
    F|--------------------------------------------------------------|
    C|-------5----5-5------5----5--4-------4----4-4----2----/5^4----|
    G|-----2----2--------2----2----------2----2------2----2------5--|
    D|--0-----------------------------------------------------------|
    
    SOLO (intro):
    D|------7-------------------7-----------------------------------7-----|
    A|----8---8--10-8-7--8-7------10-8-7-/8----10-8-7--8-7----7-8-9-------|
    
  • +
    ¡Colabora con nosotros!
    Envíanos tu versión de esta canción

Letra de Eskape
. . . . . . . . . .
BASE:
Yo corrí en la oscuridad...
Cada cual vive…
COMO INTRO:
Tanto dolor
Saber... quién... no con...
en su...
COMO INTRO X2
FINAL: X2

Video de Eskape
[]




[Eskape chords][Eskape cifra]
© LaCuerda.net · aviso legal · privacidad · es · en · pt · contacto