Acordes de Guitarra » V »Virlan Garcia » El Gross (Tab)

El Gross
Virlan Garcia

Letras, Acordes y Tabs para Guitarra, Bajo y Ukulele

  •  DO                  SOL
    De la Sánchez soy graduado
            MIm          LAm
    de las calles de Tijuana,
                       MIm
    aquí traigo una vereta
    5[-8-7-5-3-]          DO
    que ve como corre el agua..
    
     DO               SOL
    De civiles a soldados
            MIm        LAm
    con uniforme de planta,
                        MIm
    me acuerdo de mi aventura
    5[-8-7-5-3-]          DO
    cuando rayaba las bardas..
    
     DO                  SOL
    Si se trata de mi tierra
    
  • E|----------12------12----------9/10----------------
    B|----------13------13---------11/12--12-10-12-10-12
    G|--12--12------12--------12------------------------
    D|--------------------------------------------------
    A|--------------------------------------------------
    E|--------------------------------------------------
    
    E|----------10------10-----12-12-12--12--108---8--8---8-
    B|----------12------12-----13-13-13--13--1210--10-10--10
    G|--12--12------12--------------------------------------
    D|------------------------------------------------------
    A|------------------------------------------------------
    E|------------------------------------------------------
    
    E|--3-3--5-3-5---3-3-3--2--3--3-2-1--
    B|--5-5--6-5-6---5-5-5-----5--5-4-3--
    G|-----------------------------------
    D|-----------------------------------
    A|-----------------------------------
    E|-----------------------------------
    
  • +
    ¡Colabora con nosotros!
    Envíanos tu versión de esta canción

Letra de El Gross
De la Sánchez soy graduado
de las calles de Tijuana,
aquí traigo una vereta
que ve como corre el agua..
De civiles a soldados
con uniforme de planta,
me acuerdo de mi aventura
cuando rayaba las bardas..
Si se trata de mi tierra
la defiendo es mi frontera,
compa eras mejor remedio
y el 5 por radio suena..
Para ponernos diez diez con la bandera,
y estamos al cien aquí todos cooperan,
mi compadre J-P gracias deberas..
El equipo sigue en marcha hasta la perla,
el Grossero con la camisa bien puesta.
El resto de la cancion se utilizan los mismo acordes
y el mismo rasgueo....
La pobreza no me asusta
si de todo fue mi chamba,
fue por que necesitaba
moverme pa' alivianarla..
Siempre he sido de respeto
lo que vale es mi palabra,
el negocio anda muy fuerte
pero el respaldo le gana..
Un trago de un buen buchana's
un gallito me relaja,
lo prendo pa' andar agusto
por la orilla de la playa..
El Caimán pendiente en las indicaciones,
10 cabos cumpliendo con sus labores,
el 50 esta dispuesto pal' informe..
La Sánchez ya tiene dueño si señores,
Me cambiado nada más salir de pobre.




[El Gross chords][El Gross cifra]
© LaCuerda.net · aviso legal · privacidad · es · en · pt · contacto