Tablatura para Guitarra de Violeta Parra: Que pena siente el alma
Conexión · Inscripción
Letras y Acordes
Pantalla Completa
Imprimir
Versión Texto
Añadir Favorito
Otras Versiones

Mostrar Diagramas
Desfile Automático
Manipular Acordes
Formato del Texto


Que pena siente el alma(TAB)

Violeta Parra

calidad:
vprr0081
AUTOR: Violeta Parra  corregir
ALBUM: desconocido
Enviado por seba, basado en Felipe
intro:

E---------------------------------------5--7--5-5---|----8--8-10-8--7-
B----5---5-5---1-1--3--5--6-------6--8------------8-|--8--------------
G-----------------------------4---------5--7--5-5---|----9--9-10-9--7-
D--5---5---5---2-2--3--5--0---0---0--9------------9-|--9--------------
A---------------------------------------------------|-----------------
E---------------------------------------------------|-----------------


E--5---5-------------------|
B---------8---4--5--3--1---|
G--5---5-------------------|
D---------9---0--5--3--2---|
A--------------------------|
E--------------------------|

C G7 que pena siente el alma
C cuando la suerte impía
C F se opone a los deseos
G7 C que anhela el corazón que amargas son las horas de la existencia mía sin olvidar tus ojos sin escuchar tu voz y sin embargo a veces la sombra de la duda que por mi mente pasa como fatal visión. ------------------------------------------------------ dedicada a PRISCILLA : la mina que me tiene weon besos cualkier cosa diganme no ma :) XAO:)
Este fichero es trabajo propio de su transcriptor y representa su interpretación personal de la canción. El material contenido en esta página es
para exclusivo uso privado, por lo que se prohibe su reproducción o retransmisión, así como su uso para fines comerciales.

© LaCuerda.net · Aviso Legal · Privacidad