Acordes de Guitarra » V »Violeta Parra » Niña Hechicera (Tab)

Niña Hechicera
Violeta Parra

Letras, Acordes y Tabs para Guitarra, Bajo y Ukulele

  • D G A normales.. pero aquí la tabule como la toco yo :) ...
    los versos son muy parecidos en sí, tienen unas pequeñas modificaciones,
    pero les aseguro que sonara muy parecida a la original..
    cualquier duda escribanme al mail...
    
    
    INTRO: D# - G# - D# - G# - D# (2 veces)(mismos acordes pa'l intermedio)
    
    E---------4-4---4-4-------|--------4-4------------|
    B---8-8---4-4---4-4---8-8-|--8-8---4-4---------8--|
    G---8-8---5-5---5-5---8-8-|--8-8---5-5---------8--|
    D---8-8---------------8-8-|--8-8---------------8--|
    A-6-----------------6-----|----------------5-6----|
    E-------4-----4-----------|6-----6-----6-8--------|
    
    E---------4-4---4---------|--------4-4------------|
    B---8-----4-4---4-----8-8-|--8-8---4-4--4-4-6--8--|
    G---8-----5-5---5-----8-8-|--8-8---5-5--5-5-7--8--|
    D---8-----------------8-8-|--8-8---------------8--|
    A-----6-----------6-------|--------------3-5-6----|
    
  • +
    ¡Colabora con nosotros!
    Envíanos tu versión de esta canción

Letra de Niña Hechicera
los versos son muy parecidos en sí, tienen unas pequeñas modificaciones,
pero les aseguro que sonara muy parecida a la original..
cualquier duda escribanme al mail...
Verso I D# - A# - D# - G# - A# - D# (Todos los versos los mismos acordes)
Verso II
Verso III
Niña hechicera de rostro agraciado
dime si haz amado alguna vez por caridad
que yo ya siento mi alma transida
quiereme tu niña un poquitito y nada mas
ven ven ven hechicera mujer
ven ven ven ven te adoro con frenesi
si si ven hechicera a mis brazos
o sino de pena o sino de pena voy a morir
intermedio (parecido al intro pero repitiendo el ultimo verso en tablatura)
flor candorosa de gracia divina
tu eres la esperanza que mitiga mi dolor
y es tan inmensa ya mi pasion
que por ti suspira por ti delira mi corazon
flor candorosa de gracia divina
tu eres la esperanza que mitiga mi dolor
y es tan inmensa ya mi pasion
que por ti suspira por ti delira mi corazon
ven ven ven hechicera mujer
ven ven ven ven te adoro con frenesí
si si ven hechicera a mis brazos
o sino de pena o sino de pena voy a morir
____________
un saludo a mis viejos que me incentivaron a sacar esta canción
(son muy adeptos del folklore nacional)
y un reconocimiento al aniversario nro. 50 sindicato Huachipato
(regalaron el casete que lleva esta canción d^^b)




[Niña Hechicera chords][Niña Hechicera cifra]
© LaCuerda.net · aviso legal · privacidad · es · en · pt · contacto
DINAMICO