Tablatura para Bajo de Vilma Palma e Vampiros: Te Quiero Tanto
Conexión · Inscripción
Letras y Acordes
Pantalla Completa
Imprimir
Versión Texto
Añadir Favorito
Otras Versiones

Mostrar Diagramas
Desfile Automático
Formato del Texto


Te Quiero Tanto(BAJ)

Vilma Palma e Vampiros

calidad:
vpal0172
AUTOR: M. Gomez, J. Risso
ALBUM: 3980 (1994)
Enviado por hans
Bueno la cancion ta muy wena y la acabo de sacar en mi bajo

espero qe les sirva si hay algun error les pido perdon xD alli va:

Intro:

Siguiendo el ritmo de la guitarra
      ----------------------/
      -----4-4-5-5-6-7-6-7--/
      -5-5------------------/
      ----------------------/  x3

Versos :

-------------------------------------------------------------------/
------------------4-4-4-4-4-4-4-4--5-5-5-5-5-5-5-5-7-7-7-7-7-7-7-7-/
-5-5-5-5-5-5-5-5---------------------------------------------------/
-------------------------------------------------------------------/

Coro:

      ----------------------/
      -----4-4-5-5-6-7-6-7--/
      -5-5------------------/
      ----------------------/  x4

Y voz cambiaraaas una nochee

      -------------------------------/
      -----------4-4-4-4-4-5-5-4-4-7-/
      -5-5-5-5-5---------------------/
      -------------------------------/  x3

Bueno espero qe me alla salio bien emvien sus sugerencias
Este fichero es trabajo propio de su transcriptor y representa su interpretación personal de la canción. El material contenido en esta página es
para exclusivo uso privado, por lo que se prohibe su reproducción o retransmisión, así como su uso para fines comerciales.

© LaCuerda.net · Aviso Legal · Privacidad