Acordes de Guitarra » V »Vilma Palma e Vampiros » Soy un Loco (Tab)

Soy un Loco
Vilma Palma e Vampiros

Letras, Acordes y Tabs para Guitarra, Bajo y Ukulele

  • Intro: (Gm  Bb  F  C)  x2
    
         Gm          Bb        F        C
    (uou oh oh oh oh oh uou oh oh oh oh oh) x2
    
    Gm          Bb         F  C  Gm        Bb           F  C
      Quizás estaba equivocado     mejor será pedir perdón
    Gm            Bb           F   C  Gm             Bb           C
      podrán mis besos cambiar algo     tal vez comprendas a mi amor
    
            Gm           Bb         F      C
    Soy un loco que se pierde enamorado (enamorado)
             Gm          Bb           C             Gm  Bb              F  C
    como un tonto que pelea en la ciudad Deja de llorar   (ya no sufra mas)
                 Gm             Bb         C
    tengo que decirte que te quiero de verdad
    
         Gm          Bb        F        C
    (uou oh oh oh oh oh uou oh oh oh oh oh) x2
    
    
  • Intro: (Dm  F  C)  x2
    
         Dm             F            C
    (uou oh oh oh oh oh uou oh oh oh oh oh) x2
    
    Dm       F      Am            Dm       F       Am
      Quizás estaba equivocado     mejor será pedir perdón
    Dm       F      C                  Dm           F           G
      podrán mis besos cambiar algo     tal vez comprendas a mi amor
    
            Dm           F             C
    Soy un loco que se pierde enamorado (enamorado)
            Dm           F          G            Dm        F           Am
    como un tonto que pelea en la ciudad Deja de llorar   (ya no sufra mas)
                 Dm             F          G
    tengo que decirte que te quiero de verdad
    
          Dm            F            C
    (uou oh oh oh oh oh uou oh oh oh oh oh) x2
    
    
  •                    Gm A# F C
    1----------------------------------------------------X2
    2----------------------------------------------------
    3--9---7----9--7----------------9-9-7-9-7-----7------
    4--------------------10-10---7-------------10---10----
    5----------------------------------------------------
    6-----------------------------------------------------
    
    QUIZAS ESTABA EQUIVOCADO.....
    1-----------------------------------------------------
    2----------6-------------------------------------------
    3---7HP9------9---5----7---5----------------------------------
    4------------------------------7-----------------------
    5-----------------------------------------------------
    6-----------------------------------------------------
    
    SERA MEJOR PEDIR PERDON
    1-----------------------------------------------------
    2-----------------6------------------------------------
    3--------7HP9--9-------9--7----------------------------------
    
  • +
    ¡Colabora con nosotros!
    Envíanos tu versión de esta canción

Letra de Soy un Loco
(uou oh oh oh oh oh uou oh oh oh oh oh) x2
Quizás estaba equivocado mejor será pedir perdón
podrán mis besos cambiar algo tal vez comprendas a mi amor
Soy un loco que se pierde enamorado (enamorado)
como un tonto que pelea en la ciudad Deja de llorar (ya no sufra mas)
tengo que decirte que te quiero de verdad
(uou oh oh oh oh oh uou oh oh oh oh oh) x2
Quizás yo sea un transtornado por que no aguanto la presión
verán tus ojos lo que valgo tal vez me juegues por amor
(uou oh oh oh oh oh uou oh oh oh oh oh) x4
Termina con la secuencia de siempre (Gm Bb F C)




[Soy un Loco chords][Soy un Loco cifra]
© LaCuerda.net · aviso legal · privacidad · es · en · pt · contacto