Tablatura de Villancicos: Noche de paz
Villancicos  corregir
desconocido
Hola u salu2 a todos los que me conocen, aqui les tengo unas
tabs de noche de paz y esta buenisima, espero que les guste.

Noche De Paz(TABLATURA)


1|-------0-------0-----5-5-2-3-3---0-0-3-2-0-|
2|-----3---3-0-3---3-0-5-5-3-3-3-3-1-1-1-----|
3|----0------0-0-----0-5-5-2-4-4-0-0-0-0-----|
4|---0-------0-0-----0-0---0-0---0-----2-----|
5|---------------------------------3---------|
6|-3---------3-3-----3-----------3-----------|

1|------------0-----0-0-3-2-0---0------|
2|------3---3---3-0-1-1-1-----3---3-0--|
3|------0--0------0-0-0-0-----0-----0--|
4|------0-0-------0-----2-----0-----0--|
5|------------------3------------------|
6|----------------3-----------------3--|


1|-5-5-8------3-7-3-------------------|
2|-5-5-7-10-7-3-8-0-3-0-3-1-----------|
3|-5-5-7------4-7-0-----2---2-0-------|
4|-0---0------0-0-0-----0-----0-------|
5|------------------------------------|
6|----------------------2-----3-------|

(TODO SE REPITE HASTA TERMINAR LA CANCION)


Noche de Paz(ACORDES)

G G Noche de paz, noche de amor;
D7 G todo duerme en derredor,
C G sólo velan murando la faz
C G de su niño en angélica paz,
D7 G José y María en Belén,
G D7 G José y María en Belén.
G G Noche de Paz, noche de amor;
D7 G de Dios Hijo, luz de amor,
C G fulgor irradia de su santa faz
C G con la gracia de la redención
D7 G al nacer Cristo el Señor,
G D7 G al nacer Cristo el Señor.
G G Noche de Paz, noche de amor;
D7 G en los campos, al pastor,
C G coros celestes vienen a anunciar
C G salud y gracias con nuevo cantar,
D7 G a nuestro buen Redentor,
G D7 G a nuestro buen Redentor.
G G Noche de Paz, noche de amor;
D7 G los pastores, con temor,
C G escuchan glorias del cielo llegar,
C G cantan los ángeles: ¡Aleluya,
D7 G nace Cristo el Salvador,
G D7 G nace Cristo el Savador!
G G Noche de Paz, noche de amor;
D7 G todo duerme en derredor
C G y entre los astros que esparcen su luz,
C G viene anunciando al niño Jesús,
D7 G radiante estrella de paz,
G D7 G radiante estrella de paz. Si quieren en los acordes los marcan una ves hacia abajo o simplemente hacen el rasgueo Ojala que les aya servido y no hay nada mas que decir ¡JO-JO-JO, FELIZ NAVIDAD! xD Bueno me despido y adiooooos! :ROCK!
Este fichero es trabajo propio de su transcriptor y representa su interpretación personal de la canción. El material contenido en esta página es
para exclusivo uso privado, por lo que se prohibe su reproducción o retransmisión, así como su uso para fines comerciales.
© LaCuerda.net · aviso legal · privacidad · contacto