Tablatura de Villancicos: Noche de paz
Villancicos  corregir
desconocido
EL TEMA "SILENT NIHT" O NOCHE DE PARA GUITARRA SOLISTA - PRINCIPIANTE

Si desean otros temas para Guitarra Solista para Principiante - Intermedio
o Avanzado pueden escribirme al Correo Partituras.Elman@gmail.com

1º|----------0-------|-----------------|----------0-------|-----------------|
2º|--3----------3----|--0--------------|--3----------3----|--0--------------|
3º|------------------|------------0----|------------------|------------0----|
4º|-------0----------|-------0---------|-------0----------|-------0---------|
5º|------------------|-----------------|------------------|-----------------|
6º|------------------|-----------------|------------------|-----------------|


--5----------5----|--2--------------|--3----------3----|-----------------|
----------5-------|------------3----|-------0--3-------|--3--------------|
-------5----------|-------2---------|------------------|------------0----|
------------------|-----------------|------------------|-------0---------|
------------------|-----------------|------------------|-----------------|
------------------|-----------------|------------------|-----------------|



--0----------0----|--3-------2--0----|----------0-------|-----------------|
----------1-------|------------------|--3----------3----|--0--------------|
-------0----------|-------0----------|------------------|------------0----|
------------------|------------------|-------0----------|-------0---------|
------------------|------------------|------------------|-----------------|
------------------|------------------|------------------|-----------------|


--0----------0----|--3-------2--0----|----------0-------|-----------------|
----------1-------|------------------|--3----------3----|--0--------------|
-------0----------|-------0----------|------------------|------------0----|
------------------|------------------|-------0----------|-------0---------|
------------------|------------------|------------------|-----------------|
------------------|------------------|------------------|-----------------|


--5----------5----|--8----5----2----|--3----------3----|--7---------3----|
----------5-------|-----------------|-------0--3-------|-------3---------|
-------5----------|-----------------|------------------|-----------------|
------------------|-----------------|------------------|-----------------|
------------------|-----------------|------------------|-----------------|
------------------|-----------------|------------------|-----------------|


--3---------------|------------------|---------------||
-------3-----0----|--3-------1-------|--0------------||
----------0-------|-------------2----|--0------------||
------------------|-------0----------|---------------||
------------------|------------------|---------------||
------------------|------------------|---------------||
Este fichero es trabajo propio de su transcriptor y representa su interpretación personal de la canción. El material contenido en esta página es
para exclusivo uso privado, por lo que se prohibe su reproducción o retransmisión, así como su uso para fines comerciales.
© LaCuerda.net · aviso legal · privacidad · contacto