Acordes de Guitarra » V »Victor Villadangos » Taquito Militar (Tab)

Taquito Militar
Victor Villadangos

Letras, Acordes y Tabs para Guitarra, Bajo y Ukulele

  •               1        2      3          4            5
    e|------||------5h7|h8--E-|-7h5h4h|7h5h4h7h5h0----|---------|
    B|------||---0-5---|----P-|-------|-----------3h1h|3-0h4/5--|
    G|------||--2-5----|----L-|-------|---------------|---------|
    D|------||-2-------|----O-|-------|---------------|---------|
    A|--0h2h||3--------|----G-|-------|---------------|--------2|
    E|-0----||---------|------|-------|---------------|---------|
             6            7           8         9        10         11
    e|--------0h1h3h|1-0h1h0--0|------------|----0--|--------0h1h|1-0-0-
    B|---0h1h3------|--------3-|3-1h3h1-0h1h|0--1---|---0h1h3----|--1---
    G|--------------|----------|------------|--2----|--2---------|------
    D|--------------|0---------|------------|-------|------------|------
    A|--------------|------3---|2-----------|0------|0-----------|------
    E|0-------------|----------|------0-----|------0|------------|------
             12          13        14            15           16
    e|---|---------|-----1---|----
  • +
    ¡Colabora con nosotros!
    Envíanos tu versión de esta canción



Video de Taquito Militar
[]




[Taquito Militar chords][Taquito Militar cifra]
© LaCuerda.net · aviso legal · privacidad · es · en · pt · contacto