Tablatura de Victor Jara: Plegaria a un labrador
Victor Jara  corregir
desconocido
Plegaría a un Labrador

E||-------0---------|---------0------|--------0---0--|--------0---0-|
B||---0-----0-------|-----0-----0----|----0-----0----|----0-----0---|
G||-----0-----------|-------0--------|------0--------|------0-------|
D||-5---------4-2-0-|-------------4--|--2------------|--------------|
A||-----------------|--4-------------|---------------|--2-----------|
E||-----------------|----------------|---------------|--------------| x2


-7-----7---|-3------3------|-----------0-|-----------0-|
---0-----0-|---0-------0---|-------0-----|-------0-----|
-----0-----|-----0-----0---|---0-----0---|---0-----0---|
-5---------|-4------2------|-----2-------|-----2-------|
-----------|---------------|-2-----------|-2-----------|
-----------|---------------|-------------|-------------| x2


MIm LAm |-----------0--|-----------0--| |-------0------|-------0------| |---0-----0----|---2-----2----| |-----2--------|-----2--------| |-2------------|-0------------| |--------------|--------------| ... continúa ... Le - ván - ta - te...
MIm y mira la montaña,
LAm de donde viene
MIm el viento, el sol y el agua.
RE Tú que manejas
MIm el curso de los ríos,
RE tú que sembraste
MIm el vuelo de tu alma.
LAm Levántate
MIm y mírate las manos,
LAm para crecer
MIm estréchala a tu hermano,
RE juntos iremos
MIm unidos en la sangre,
RE hoy es el tiempo
LA que puede ser mañana.
LA7 Líbranos de aquel que nos domina
MI RE MI RE en la miseria,
LA7 tráenos tu reino de justicia
MI RE MI RE e igualdad.
SOL RE Sopla como el viento
LA7 MI la flor de la quebrada,
SOL RE limpia como el fuego
LA7 MI el cañón de mi fusil.
LA7 Hágase por fin tu voluntad
MI RE MI RE aquí en la tierra,
LA7 danos tu fuerza y tu valor
MI RE MI RE al combatir.
SOL RE Sopla como el viento
LA7 MI la flor de la quebrada.
SOL RE Limpia como el fuego
LA7 MI MIm el cañón de mi fusil.
LAm Levántate
MIm y mírate las manos,
LAm para crecer
MIm estréchala a tu hermano,
RE juntos iremos
MIm unidos en la sangre,
RE ahora y en la hora
LA de nuestra muerte, amén.
RE-LA
Amén.
RE-LA
Amén. _________________ TRATARON DE CALLARLO PERO SOLO AVIVARON MAS SU VOZ, SU CANTO, SU POESÍA.. VICTOR JARA PRESENTE!!! *RedgraZ RekordZ de Diosa del Viento* (1año7meses)
Este fichero es trabajo propio de su transcriptor y representa su interpretación personal de la canción. El material contenido en esta página es
para exclusivo uso privado, por lo que se prohibe su reproducción o retransmisión, así como su uso para fines comerciales.
© LaCuerda.net · aviso legal · privacidad · contacto