Acordes de Guitarra » V »Victor García » Otra Vez (Tab)

Otra Vez
Victor García

Letras, Acordes y Tabs para Guitarra, Bajo y Ukulele

  •        G - Em - C - D
    
              G
    La encontre
    
    a quien tanto esperaba
            Em
    a quien siempre soñe
    
    pero al verla a los ojos
           Am
    no me pude mover
           C
    me quede con las ganas 
          D
    de seguirle los pies
    
    
            G
    Se me fue 
    
  •  C                             
    La encontre, a quien tanto esperaba
              Am
    a quien tanto soñe
    pero al verla a los ojos
          FA
    no me pude mover, me quede con las ganas
             SOL
    de seguirle los pies.
    
    C               
    Se me fue, como se va la tarde 
           Am    
    como si fuera un tren
    poco a poco mis ojos 
         FA
    la dejaron de ver  y no se si algun dia
                        SOL
    vuelva a verla otra vez.
    
    
  •  C                             
    Me encontré, a quien tanto esperaba
              Em
    a quien siempre soñe
    pero al verla a los ojos
          Dm                     F
    no me pude mover, me quedé con las ganas
             G
    de seguirle los pies.
    
    C               
    Se me fué, como se va la tarde 
           Em    
    como si fuera un tren
    poco a poco mis ojos 
        Dm                          F
    la dejaron de ver  y no se si algun día
                        G
    me la encuentre otra vez.
    
    
  • ESTA CANCION ESTA MUY FACIL Y VA ASI:
    
    INTRO:
    E|----------------------------------------------------------------|
    B|----------------------------------------------------------------|
    G|----------------------------------------------------------------|
    D|----------------------------------------------------------------|
    A|----------------------------------------------------------------|
    E|----------------------------------------------------------------|
    
    VERSO:
    E|-----10--------10-----------10----------------------------------|   |
    B|----------------------------------------------------------------|   |
    G|---12--12--12----12-------12--12--12--11------------------------|   |
    D|-12------12--12---------12------12--12--12----------------------|   |
    A|----------------------------------------------------------------|   |
    E|----------------------------------------------------------------|   |
                                                                          |
    E|-----10-------
  • +
    ¡Colabora con nosotros!
    Envíanos tu versión de esta canción

Letra de Otra Vez
La encontre
a quien tanto esperaba
a quien siempre soñe
pero al verla a los ojos
no me pude mover
me quede con las ganas
de seguirle los pies
Se me fue
como se va la tarde
como si fuera un tren
poco a poco mis ojos
la dejaron de ver
y no se si algun dia
me la encuentre otra vez
Otra vez
aunque sea solo un minuto
quiero verla otra vez
pa' decirle tantas cosas
que por tonto callé
ayer
Otra vez
ojala que se cruzara
por mi vida otra vez
pa' matar esta tristeza
que dejo esta mujer
de la que me enamore
ayer... ayer
Ohh uuuhh
Ohh Noooou
[]
Se me fue
como se va la tarde
como si fuera un tren
poco a poco mis ojos
la dejaron de ver
y no se si algun dia
me la encuentre otra vez
...ayer
ayeeeer
De la que me enamore
Ohh Ohhh Uhh Ohhh
PD: 1er. Sencillo del nuevo cd de Victor ex-alumno de la academia.
Muy facil de aprender, checa el ritmo tipo country para sacar el rasgueo...
y como dice mi compadre el Victor ' ojala te cruzaras por mi vida otra vez Ale'
quejas , sugerencias , saludos o recordatorios a mi señora madre a: said_2099@hotmail.com
thx!




[Otra Vez chords][Otra Vez cifra]
© LaCuerda.net · aviso legal · privacidad · es · en · pt · contacto