Acordes de Guitarra » V »Victor Flores » Cristo te amamos (Tab)

Cristo te amamos
Victor Flores

Letras, Acordes y Tabs para Guitarra, Bajo y Ukulele

  •   C -                           Am7
    e|---------------------------------------------------------------------------|
    B|----------1------------1---------------1-------------1---------------------|
    G|----0------------0---------------0------------0----------------------------|
    D|-------2------------2---------------2------------2-------------------------|
    A|-3------------3---------------0------------0-------------------------------|
    E|---------------------------------------------------------------------------|
    
       F -                          C
    e|---------------------------------------------------------------------------|
    B|----------1------------1---------------1-------------1---------------------|
    G|----2------------2---------------0------------0----------------------------|
    D|-------3------------3---------------2------------2-------------------------|
    A|-3------------3---------------3------------3-------------------------------|
    E|---------------------------------------------------------------------------|
    
    
    
    C                 Am7
    Cristo te amamos, eres más que suficiente
    
  • +
    ¡Colabora con nosotros!
    Envíanos tu versión de esta canción

Letra de Cristo te amamos
Cristo te amamos, eres más que suficiente
Cristo te amamos, refugio roca fuerte
Cristo te amamos, venciste a la muerte
Cristo te amamos, salvador hijo de Dios
Quien guía hoy mis pasos
Quien guía hoy mis pasos
Tu palabra guía en mis pasos
Tu palabra guía en mis pasos
Hay poder, en el nombre de Jesús
Hay poder, en el nombre de Jesús
Cristo te amamos, eres más que suficiente
Cristo te amamos, refugio roca fuerte
Cristo te amamos, venciste a la muerte
Cristo te amamos, salvador hijo de Dios
Adorno A (se toca durante el próximo verso):
Quien guía hoy mis pasos
Quien guía hoy mis pasos
Adorno B (se toca el resto de la canción)
Hay poder, en el nombre de Jesús
Hay poder, en el nombre de Jesús
Donde dos o tres estan
Ahí estas tú
Donde tú estas
Ahí hay libertad
Donde hay libertad
Las cadenas se caen
Hay poder en el nombre
Hay poder en la sangre
Hay poder en la sangre
Hay poder, en el nombre de Jesús
Hay poder, en el nombre de Jesús
Hay poder, en el nombre de Jesús




[Cristo te amamos chords][Cristo te amamos cifra]
© LaCuerda.net · aviso legal · privacidad · es · en · pt · contacto
DINAMICO