Tablatura para Bajo de Vicentico: El árbol de la plaza
Conexión · Inscripción
Letras y Acordes
Pantalla Completa
Imprimir
Versión Texto
Añadir Favorito
Otras Versiones

Mostrar Diagramas
Desfile Automático
Formato del Texto


El árbol de la plaza(BAJ)

Vicentico

calidad:
vice0192
AUTOR: Vicentico
ALBUM: Los Pájaros (2006)
Enviado por Gerardo
Hola... Ahora un tema del líder de Los Fabulosos Cadillacs
en su tercer disco como solista.

Intro (notas largas):

G ----------|
D ----9-----|
A -7--------| (2 veces)
E -------7--|

G -----------|
D -----------|
A --7----7---| (3 veces)
E ----10-----|

G ----|
D -9--|
A ----|
E ----|

Canción

G ---------|
D ------9--|
A -7-10----| (3 veces)
E ---------|


G ---------|
D ---------|
A ---6--9--|(4 veces)
E -7-------|

G -----------9------|
D --------9-----9---|
A -7--10------------| (2 veces)
E ------------------|

G ------------|
D ------------|
A ---6--9-----| (2 veces)
E -7------7---|

Pre-Coro:

G ----------------|
D ----------------|
A -5---5--7---7---| (4 veces)
E ---5------7-----|

Después de la cuarta vez:

G --------|
D -9-9-9--|
A --------|
E --------|

Coro:

"LLueve llueve. Nadie se mueve..."

G ---------------------------------------------|
D ---7--9------------------7--9---9------------|
A -7------9-----9-7-----7-------9---9--7---7---| (2 veces)
E -----------7-------7-------------------7-----|

Fin del coro:

G -------------|
D -------------|
A -7-----------|
E ---10-9-8-7--|

G --------|
D --------|
A ---6-9--| (3 veces)
E -7------|

G ------------------------9-------------|
D -------9-------------9-----9----------|
A -7-10-----7---7--10-----------10--7---|
E --------------------------------------|

G --------------|
D -------9------|
A -7-10-----7---| (1 vez)
E --------------|

G --------|
D --------|
A ---6-9--| (4 veces)
E -7------|

G --------------|
D -------9------|
A -7-10-----7---| (1 vez)
E --------------|


Pre-coro/coro (Con los mismos arreglos)

Luego:

G ----------------------------7-----7----------7------|
D -------9-----7----7------7--------------------------|
A -7---7----7----7-------------------------10-----10--|
E ---7-----------------10-------10-----10-------------|

G ------------------|
D ------9--------9--|
A ---9--------9-----|
E -7-------7--------|


G -------------------|
D ----9-------9---7--|
A -7-------7----7----|
E ------7------------|

G -----------------------7-----------|
D -7---7-----7----------------10--9--|
A ---7--------------10-----10--------|
E -------10-----10-------------------|

G ---------------------------------|
D ---9-----8--9---9----------------|
A -9---9-9------9------9---9----7--|
E -----------------------7----7----|

"LLueve Llueve... Nadie se mueve"

G --------|
D -9-9-9--| (con las trompetas)
A --------|
E --------|


Se vuelve a tocar el coro hasta el final de la canción.
Es fácil, sólo hay ue seguir el ritmo. Feliz Navidad y
¡¡¡hasta la próxima!!!
Este fichero es trabajo propio de su transcriptor y representa su interpretación personal de la canción. El material contenido en esta página es
para exclusivo uso privado, por lo que se prohibe su reproducción o retransmisión, así como su uso para fines comerciales.

© LaCuerda.net · Aviso Legal · Privacidad