Tablatura para Guitarra de Vetusta Morla: Un plan mejor
Conexión · Inscripción
Letras y Acordes
Pantalla Completa
Imprimir
Versión Texto
Añadir Favorito
Otras Versiones

Mostrar Diagramas
Desfile Automático
Manipular Acordes
Formato del Texto


Un plan mejor(TAB)

Vetusta Morla

calidad:
vmor0261
AUTOR: Vetusta Morla
ALBUM: desconocido
Enviado por Edu
Típica canción de muchas "mijitas", pero a fin de cuentas son
4 riffs y 4 acordes. Para tocar con efectos, delay y trémolo.
El Riff de bajo es casi permanente en la canción, pero se puede
hacer un apaño con guitarra.

Riff1

-15------15---------16-15---------15------15----15-----16-15---------
----18-----------16--------18-16---------------------16------18--16--
-------------17----------------------17------17----------------------
---------------------------------------------------------------------
---------------------------------------------------------------------
---------------------------------------------------------------------

-18----18----16-15-----------18---18-----18--16-15-------------------
-------------------16----16------------------------------------------
---17----17----------17-------17----17-------------15-17-------------
---------------------------------------------------------------------
---------------------------------------------------------------------
---------------------------------------------------------------------


Riff2

---------------------------------------------------------------------
---------------------------------17---18-----------------------------
--5s15s12--5s15---17-------17-19-------------------------------------
---------------------15-17----------------15---17b-------------------
---------------------------------------------------------------------
---------------------------------------------------------------------

Riff3

---------------------------------------------------------------------
------------11h13-------------11h13---------------15-16s10-----------
-10h12------------10h12---------------12s17--------------- 10-12b----
---------------------------------------------------------------------
---------------------------------------------------------------------
---------------------------------------------------------------------

Riff4 (distorsión)

---------------------------------------------------------------------
---------------------------------------------------------------------
-5-5-5-5-5-5-5-5s--15-15-15s-13-13-13-13s-3-3-3-3s-7-7-7-7-8-8-8-8---
---------------------------------------------------------------------
---------------------------------------------------------------------
---------------------------------------------------------------------

---------------------------------------------------------------------
---------------------------------------------------------------------
-5-5-5-5-5-5-5-5s--15-15-15 15s-13-13-13-13s-12-12-12-12-12-12-12-12s
---------------------------------------------------------------------
---------------------------------------------------------------------
---------------------------------------------------------------------

---------------------------------------------------------------------
---------------------------------------------------------------------
-7-7-7-7-5-5-5-------------------------------------------------------
---------------------------------------------------------------------
---------------------------------------------------------------------
---------------------------------------------------------------------

Riff bajo
---------------------------------------------------------------------
--1------------------------------------------------------------------
---------------------------------------------------------------------
------------------------3---1----------------------------------------
------3----3-1-3-----------3----1---3--------------------------------
------------------------------------------------3--------------------

Cm Tuve maletas listas para huir
G#m Fm por si mi sombra se volvía contra mi.
Cm Desactive la bomba en mi interior
G#m Fm Tuve el indulto pero no el perdón.
Cm Soy juez y parte de mi cicatriz
G#m Fm ella es mi historia y no el dardo contra mí Riff2 Si tuviera hoy una voz mejor que el silencio...
G# F Si tuviera fe, algo más que dormir de pie esperando... en el límite. Riff1
Cm Ya que camino aprenderé a bailar (Firmo la paz con el espejo)
G#m Fm Pie sobre huella pasos al compás (salgo a bailar con el reflejo) Riff3 Guarda tus flores hoy no hay funeral (Guarda la espada y los cañones,guarda la fe y las oraciones) No hay funeral
G# F Si tuviera hoy una voz mejor que el silencio
G# F Si tuviera hoy un plan mejor que dormir de pie... en el limite. Riff4 (x2) (variación) Un plan para descifrar las siglas de la rendición. Un plan para despertar,hoy tengo un plan mejor. Un plan para rescatar los trapos viejos del cajón, filtrar ruido en el dial y escapar de la espiral.
G# F Si tuviera hoy una voz mejor que el silencio
G# F Si tuviera hoy un plan mejor que dormir de pie... en el limite. Riff3 (x2) (ligeramente modificado) Hoy no hay funeral. No hay funeral. Con cariño para mi náyade, princesa mora y malabarista de planes mejores. Febrero 2012.
Este fichero es trabajo propio de su transcriptor y representa su interpretación personal de la canción. El material contenido en esta página es
para exclusivo uso privado, por lo que se prohibe su reproducción o retransmisión, así como su uso para fines comerciales.

© LaCuerda.net · Aviso Legal · Privacidad