Acordes de Guitarra » V »Vetusta Morla » Pirómanos (Tab)

Pirómanos
Vetusta Morla

Letras, Acordes y Tabs para Guitarra, Bajo y Ukulele

  •    Bm                    Bm                G                G
    E------------------|-----------------|----------------|----------------
    B------------------|-----------------|----------------|----------------
    G------------------|-----------------|----------------|----------------
    D--------3-2-0-----|-------3-2-0-----|------3-2-0-----|------3-2-0-----
    A--0-2-2-------2-2-|-0-2-2-------2-2-|-0----------2-2-|-0----------2-2-
    E------------------|-----------------|--3-3-----------|--3-3-----------
    
    Bm G
    Bm G
    
         Bm              E               G
    No era yo, a quien viste caer no era yo.
          F#m                 E
    Fue quizás un reflejo impostor
           Bm                  G            E
    El que puso en mi mano el puñal, no era yo allí había
    
             G
    alguien más. En el mismo lugar, flor y metal
    
  • E------------------------------------------------------------------------------
    B------------------------------------------------------------------------------
    G------------------------------------------------------------------------------
    D------2-0-----------------2-0-----------------2-0-----------------2-0---------
    A--2-2-----4-2--2-0-2--2-2-----4-2--2-0-2----------4-2--2-0-2----------4-2-0-2-
    E------------------------------------------3-3-----------------3-3-------------
    
    Bm G
    Bm G
    
         Bm              E               G
    No era yo, a quien viste caer no era yo.
          F#m                 E
    Fue quizás un reflejo impostor
           Bm                   G            E                    G
    El que puso en mi mano el puñal, no era yo allí había alguien más.
    
    
    En el mismo lugar, flor y metal
                D
    
  • +
    ¡Colabora con nosotros!
    Envíanos tu versión de esta canción

Letra de Pirómanos
No era yo, a quien viste caer no era yo.
Fue quizás un reflejo impostor
El que puso en mi mano el puñal, no era yo allí había
alguien más. En el mismo lugar, flor y metal
Y un resplandor que se derrama a nuestro
alrededor. En el mismo renglón, gozo y dolor
Pueden gritar:
"¡Menos humos y más fuego, más, más, más, más!"
No eras tú, fue tu forma de hacerme caer
fue tu nombre cantado al revés
El conjuro que me hizo jurar,
Que eras tú, pero había
alguien más. En el mismo lugar, hueso y metal
Y un resplandor que se derrama a nuestro
alrededor. En el mismo renglón, gozo y dolor
Pueden gritar:
"¡Menos humos y más fuego, más, más, más, más!"
Ya quemé sin piedad los espacios en blanco y después
no hubo más, sólo ruido y sudor,
sólo paz. En el mismo lugar, carne y metal
Y un resplandor que se derrama a nuestro
alrededor. En el mismo renglón, gozo y dolor
Pueden gritar:
"¡Menos humos y más fuego, más, más, más, más!"
[Intento de transcripción by elbipedealabama aka Apocalipsis Ventral]
https://soundcloud.com/apocalipsis-ventral
http://apocalipsisventral.bandcamp.com/




[Pirómanos chords][Pirómanos cifra]
© LaCuerda.net · aviso legal · privacidad · es · en · pt · contacto