Acordes de Guitarra » V »Vetusta Morla » Copenhague (Tab)

Copenhague
Vetusta Morla

Letras, Acordes y Tabs para Guitarra, Bajo y Ukulele

  • E -----2-----2-----2-----2-----2-----2-----4-----4----
    B --------2-----2-----2-----2-----3-----3-----3-----3-
    G ----------------------------------------------------
    D ----------------------------------------------------
    A ----------------------------------------------------
    E ----------------------------------------------------
    
    E -5-----5-----5-----5-----7-----7-----5-----4--------
    B ----5-----5-----5-----5-----5-----5-----5-----5-----
    G ----------------------------------------------------
    D ----------------------------------------------------
    A ----------------------------------------------------
    E ----------------------------------------------------   (x2)
    
    Bajo de entrada:
    
                             (Bm)
    E ------------------------2--
    B ------------------------3--
    G ------------------------4--
    
  • E -----2-----2-----2-----2-----2-----2-----4-----4----
    B --------2-----2-----2-----2-----3-----3-----3-----3-
    G ----------------------------------------------------
    D ----------------------------------------------------
    A ----------------------------------------------------
    E ----------------------------------------------------
    
    E -5-----5-----5-----5-----7-----7-----5-----4--------
    B ----5-----5-----5-----5-----5-----5-----5-----5-----
    G ----------------------------------------------------
    D ----------------------------------------------------
    A ----------------------------------------------------
    E ----------------------------------------------------   (x2)
    
    Bajo de entrada:
    
                             (Bm)
    E ------------------------2--
    B ------------------------3--
    G ------------------------4--
    
  • E -----2-----2-----2-----2-----2-----2-----4-----4----
    B --------2-----2-----2-----2-----3-----3-----3-----3-
    G ----------------------------------------------------
    D ----------------------------------------------------
    A ----------------------------------------------------
    E ----------------------------------------------------
    
    E -5-----5-----5-----5-----7-----7-----5-----4--------
    B ----5-----5-----5-----5-----5-----5-----5-----5-----
    G ----------------------------------------------------
    D ----------------------------------------------------
    A ----------------------------------------------------
    E ----------------------------------------------------   (x2)
    
    Bajo de entrada:
    
                             (SIm)
    E --------------------------
    B --------------------------
    G --------------------------
    
  • E -----2-----2-----2-----2-----2-----2-----4-----4----
    B --------2-----2-----2-----2-----3-----3-----3-----3-
    G ----------------------------------------------------
    D ----------------------------------------------------
    A ----------------------------------------------------
    E ----------------------------------------------------
    
    E -5-----5-----5-----5-----7-----7-----5-----4--------
    B ----5-----5-----5-----5-----5-----5-----5-----5-----
    G ----------------------------------------------------
    D ----------------------------------------------------
    A ----------------------------------------------------
    E ----------------------------------------------------   (x2)
    
    Bajo de entrada:
    
                             (Bm)
    E ------------------------2--
    B ------------------------3--
    G ------------------------4--
    
  • +
    ¡Colabora con nosotros!
    Envíanos tu versión de esta canción

Letra de Copenhague
Bajo de entrada:
El corría, nunca le enseñaron a andar, se fue tras luces pálidas.
Ella huía de espejismos y horas de más.
[Bajo de entrada]
Aeropuertos. Unos vienen, otros se van, igual que Alicia sin ciudad.
El valor para marcharse, el miedo a llegar.
Llueve en el canal, la corriente enseña el camino hacia el mar.
Todos duermen ya.
Dejarse llevar suena demasiado bien.
Jugar al azar, nunca saber dónde puedes terminar...
o empezar.
Un instante mientras los turistas se van. Un tren de madrugada
consiguió trazar la frontera entre siempre o jamás.
Llueve en el canal, la corriente enseña el camino hacia el mar.
Todos duermen ya.
Dejarse llevar suena demasiado bien.
Jugar al azar, nunca saber dónde puedes terminar...
o empezar... o empezar
Ella duerme tras el vendaval.
No se quitó la ropa.
Sueña con despertar
en otro tiempo y en otra ciudad.
Dejarse llevar suena demasiado bien.
Jugar al azar, nunca saber dónde puedes terminar...
o empezar. [terminar]
o empezar. [terminar]
o empezaaaaaaaaaaaaaa.........
[Punteo del final... para otro rato... :) ]




[Copenhague chords][Copenhague cifra]
© LaCuerda.net · aviso legal · privacidad · es · en · pt · contacto