Tablatura para Guitarra de La Vela Puerca: Se a donde quiere ir
Conexión · Inscripción
Letras y Acordes
Pantalla Completa
Imprimir
Versión Texto
Añadir Favorito
Otras Versiones

Mostrar Diagramas
Desfile Automático
Manipular Acordes
Formato del Texto


Se a donde quiere ir(TAB)

La Vela Puerca

calidad:
vpue0815
AUTOR: Sebastian Teysera
ALBUM: Piel y Hueso (2011)
Enviado por Franco
Este es el solo de viento (más o menos como yo lo saqué) que mete al final.

--12--10------------12--10------------
----------8---10-8---------8--7-5-3---
--------------------------------------
--------------------------------------
--------------------------------------
--------------------------------------


--------------------------7--5-4-------
3-5-7-5-3---3-5-7-5-3-5----------7-5---
---------------------------------------
---------------------------------------
---------------------------------------
---------------------------------------



-----------5-3-------------------------
3-5-7-5-3----------7-5-3-5--7--10-9--5-
---------------------------------------
---------------------------------------
---------------------------------------
---------------------------------------



---8-10-8-5-7---8-7-3-5--3--5-2--------
10--------------------------------5-3-5
---------------------------------------
---------------------------------------
---------------------------------------
---------------------------------------
Este fichero es trabajo propio de su transcriptor y representa su interpretación personal de la canción. El material contenido en esta página es
para exclusivo uso privado, por lo que se prohibe su reproducción o retransmisión, así como su uso para fines comerciales.

© LaCuerda.net · Aviso Legal · Privacidad