Acordes de Guitarra » V »Valentín y los Volcanes » Baila Conmigo (Tab)

Baila Conmigo
Valentín y los Volcanes

Letras, Acordes y Tabs para Guitarra, Bajo y Ukulele

  •     E
    e|------------12-----------------------12-------------
    B|------12-14----14-12-----------12-14----14-12-------
    G|---13----------------13-----13----------------------
    D|----------------------------------------------------
         C#m                                                     x2
    e|----------------------------------------------------
    B|------9-10-12-10-9---------9-10-12-10-9-------------
    G|----9--------------9-----9--------------------------
    D|----------------------------------------------------
    
    
        E                    C#m
    e|----------------------------------------------------
    B|----------------------------------------------------
    G|----------------------------------------------------       x2
    D|--2--2-2-2-4--6--6-6-6--9--9-9-9-11-9-6--6-6-6-6~~6-
    
    
      E - C#m
    
  • +
    ¡Colabora con nosotros!
    Envíanos tu versión de esta canción

Letra de Baila Conmigo
D|--2--2-2-2-4--6--6-6-6--9--9-9-9-11-9-6--6-6-6-6~~6-
Vamos, vamos, baila conmigo
esta noche, esta noche
Odio y amor siempre fue lo mismo
nuestros caminos, nuestros destinos
Vamos,vamos, muere conmigo
esta noche, nuestra noche
D|--2--2-2-2-4--6--6-6-6--9--9-9-9-11-9-6--6-6-6-6~~6-
x2
(final)
En esta parte la guitarra de fondo va haciendo esto:
(PD: les recomiendo tocar el Mi en el 7mo espacio)




[Baila Conmigo chords][Baila Conmigo cifra]
© LaCuerda.net · aviso legal · privacidad · es · en · pt · contacto
DINAMICO