Acordes de Guitarra » U »Umbral » A dónde vas (Tab)

A dónde vas
Umbral

Letras, Notas, Punteos, Tablaturas y Acordes de Guitarra (Tabs & Chords)

  • Letra y Acordes
    INTRODUCCION:(LAm MI x 4)
    
    LAm           RE7      SOL   MIm          FA
    Talvez no sea tiempo para culpar a un corazón
    
           SOL            FA      DO-LAm     REm     MI-MI7
    cuando este de haya herido de muerte sin grave razón
    
    LAm             RE7       SOL   MIm       FA
    una lección de amor este necesita comprender
    
         SOL           FA         DO-LAm     REm   MI-MI7
    pues puede ser muy tarde otra vez hondo puede caer
    
    
    CORO
    
    DO           SOL       LAm          MIm
      Quién eres tú, que renuncias a sufrir
    
    
  • Tablatura
    E---------------7------6----------------7----6-----9-7-6-7----10----
    B--8-7----7--------7---7-7----8-7----7-----7-7--7----------7---7--7-
    G------9-----7---------6----------9----7-----6----------------------
    D-------------------------------------------------------------------
    A-------------------------------------------------------------------
    E---------7--------------------------7-------------------7----------
    
    
    E--6-----------------]
    B--7--7--8-7-5a7-----]
    G--6-----------------]
    D--------------------]
    A--------------------]
    E--------------------]
    
     SI          MI          LA   FA#m         SOL  
    1)Talvez no sea tiempo para culpar a un corazón
     
         LA               SOL       RE A SIm  MIm7   FA#7
    cuando este de halla herido de muerte sin grave razón
    
  • +
    ¡Colabora con nosotros!
    Envíanos tu versión de esta canción

Letra de A dónde vas
Talvez no sea tiempo para culpar a un corazón
cuando este de haya herido de muerte sin grave razón
una lección de amor este necesita comprender
pues puede ser muy tarde otra vez hondo puede caer
Quién eres tú, que renuncias a sufrir
rechazas los problemas como un techo a la lluvia
a dónde vas, no puedes escapar
drogarse es desarmarse ante esta guerra de locos
A un viejo amigo se le pudrió la gana de vivir
su historia fue un ejemplo modelo para todo infeliz
Un hombre es más que una lágrima en un lago de dolor
es alguien para hacer libertad de su cárcel.
Quién eres tú, que renuncias a sufrir
rechazas los problemas como un techo a la lluvia
a dónde vas, no puedes escapar
drogarse es desarmarse ante esta guerra de locos
Y la rutina sigue las consecuencias de nacer
el hijo de un mal padre y no hay nada, casi nada que hacer.
Talvez un día encuentres un par de puertas por abrir
de donde sólo una te enseñará a dónde vas a ir.

Videos de A dónde vas
[ver más videos]



© LaCuerda.net · Aviso Legal · Privacidad