Acordes de Guitarra » T »Los Twist » El Estudiante (Tab)

El Estudiante
Los Twist

Letras, Acordes y Tabs para Guitarra, Bajo y Ukulele

  • ---------------------------------
    ---------------------------------
    ---------------------5h6-5h6-----   4 veces
    -7---5-7---5-7---5-7-------------
    ---7-----7-----7-----------------
    ---------------------------------
        LA            MI
    Es cortes,y muy galante
       MI7        LA
    Educado por demas
            LA7        RE                
    En su escala de valores 
          LA           MI
    Lo primero es estudiar
    
          LA              MI
    Muy correcto en sus modales
       MI7           LA
    Moderado al criticar
    LA7                RE
    
  • intro: LA
    
    e---------------------------------/
    b---------------------------------/
    g----------------------5-6-5-6----/  (cuatro veces)
    d--7---5-7---5-7---5-7------------/
    a----7-----7-----7----------------/
    E---------------------------------/
    
    estrofas: LA - MI- MI7-LA-LA7-RE-LA-MI-(dos veces)
    
    e-----------------------/------------------------/
    b-----------------------/------------------------/
    g---------------------6~/--6666---6-7-6----------/
    d--7777--7999--7999-79--/-------9----7-7-9-7-6-7~/
    a-----------------------/------------------------/
    E-----------------------/------------------------/
    
    estribillos: LA-MI-MI7-LA-LA7-RE-LA-MI-LA
    
    e----------------------/--------------------------/
    b----------------------/--------------------------/
    g--------6-------------/------67------------------/
    d--7~-779-7--7777-7-6~-/-9~-99--9-9999-10-10-11~~~/
    a----------------9-----/--------------------------/
    E----------------------/--------------------------/
    
    e-------------
  • hola, soy Sebastián Torre desde Bahia Blanca (Argentina) y les mando la intro 
    de El Estudiante de los Twist, para Bajo.
    
    Cualquier Problema: sebatorre@infovia.com.ar
    
    El Estudiante (para Bajo)
    
    intro: X2
    
    G---------------------5-6-5-6-I-----------------I-------
    D-7---5-7---5-7---5-7---------I-7---5-7---5-7---I-------
    A---7-----7-----7-------------I---7-----7-------I-------
    E-----------------------------I-----------------I-------
  • +
    ¡Colabora con nosotros!
    Envíanos tu versión de esta canción

Letra de El Estudiante
Es cortes,y muy galante
Educado por demas
En su escala de valores
Lo primero es estudiar
Muy correcto en sus modales
Moderado al criticar
Nunca se copia de nadie
Y a nadie deja copiar
Es el estudiante,estudiante de verdad
Es el estudiante el ejemplo universal
Y los estudiantes te queremos saludar
Entonando esta cancion con orgullo
Y con pasion estudiantes,estudiantes a estudiar
En historia es el primero,
En latin es el mejor
El va a clases aunque alla huelga
Y entretiene al director
Sus amigos (lo idolatran)
Lo quieren envalsamar
Para hacer un monumento
Al estudiante ideal
Es el estudiante,estudiante de verdad
Es el estudiante el ejemplo universal
Y los estudiantes te queremos saludar
Entonando esta cancion con orgullo
Y con pasion estudiantes,estudiantes a estudiar
Alumnos de sexto grado la carrera termino
Las aulas estan vacias vacio mi corazon
Los saludo la maestra los saluda el director
Es el estudiante,estudiante de verdad
Es el estudiante el ejemplo universal
Y los estudiantes te queremos saludar
Entonando esta cancion con orgullo
Y con pasion estudiantes,estudiantes a estudiar
Hola me llamo Cristian,soy argentino y tengo 13 años.
guitarrero84@hotmail.com o superguitarrista@hotmail.com




[El Estudiante chords][El Estudiante cifra]
© LaCuerda.net · aviso legal · privacidad · es · en · pt · contacto