Acordes de Guitarra » T »Tuxido » Aire (Tab)

Aire
Tuxido

  • Letra y Acordes
    INTRO: E B A
    SE TOCA CUATRO VECES UNA EN CADA ACORDE
    E---------------------------|
    B---------------------------|
    G--9----8----8----8--11-9-8-|
    D---9-9--9-9--9--9-9-------9|
    A---------------------------|
    E---------------------------|
    EN LA ULTIMA LLEVA ESTO DE MAS
    E---------------------------|
    B---------------------------|
    G--9----8----8----8--11-9-8-9
    D---9-9--9-9--9--9-9-------9|
    A---------------------------|
    E---------------------------|
    
    
    E
    Me refugio en tu bolsillo
    B
    
  • +
    ¡Colabora con nosotros!
    Envíanos tu versión de esta canción

Letra de Aire
SE TOCA CUATRO VECES UNA EN CADA ACORDE
EN LA ULTIMA LLEVA ESTO DE MAS
Me refugio en tu bolsillo
Te persigo bajo tu ropa
Examino todo tu cuerpo
Doy un salto y salto a tu boca
Tu me escondes entre tus labios
Pero yo me agarro a tu pelo
Voy trepando por tu camisa
hasta el cielo
soy como el aire haha
soy como el aire haha
pegado a ti
siguiéndote al andar
por que te juro que soy aire haha
soy como el aire haha
pegado a ti
no puedes escapar
Voy jugando entre tus dedos
Me acuesto sobre tu cama
y me filtro bajo tu perta
O me cuelo por la ventana
Tu me escondes entre tus labios
Pero yo me agarro a tu pelo
Voy trepando por tu camisa
hasta el cielo
soy como el aire haha
soy como el aire haha
pegado a ti
siguiéndote al andar
por que te juro que soy aire haha
soy como el aire haha
pegado a ti
no puedes escapar
SE REPITE CUATRO VECES UNA EN CADA ACORDE
esta es la ultima de las cuatro y se agrega algo chequenlo
AIRE HAA
SOY COMO EL AIRE HAA
PEGADO A TI
SIGUIENDOTE AL ANDAR
POR QUE TE JURO QUE SOY AIRE HAHA
SOY COMO EL AIRE HAAA
PEGADO A TI
FIANL:
NO PUEDES ESCAPAR
CUALQUIER CORRECION A MO CORREO OK
BYE
CRYSTOPHER.ENRIQUEZ.CASTELAN@HOTMAIL.COM

Video de Aire
[]



© LaCuerda.net · aviso legal · privacidad · contacto