Acordes de Guitarra » T »Los Trukeros » Tumba, Tumba (Tab)

Tumba, Tumba
Los Trukeros

Letras, Acordes y Tabs para Guitarra, Bajo y Ukulele

  • e---------------------------------------
    B---------------------------------------
    G---------------------------------------    x2
    D---------------------------------------
    A---------5-4--5-4----------5-4--5-4----
    E--2-2-2-----------2-1-1-1------------5-
    
    Punteo:
    
    e-----------------------------------------------------
    B-----------------------------------------------------
    G--------------------6-6-6---1-1-1-------1---1--6-6-6-
    D--4-4-4---4-6-7-4-6---------------3---3---3----------
    A--------4---------------------------4----------------
    E-----------------------------------------------------
    
    ------------------------------------------------------
    ------------------------------------------------------
    --------------------------7-7-7-6-7-79--7-6-4-6-7-----
    --4-4-4---4---2-2-2-6-6-6-----------------------------
    
  • +
    ¡Colabora con nosotros!
    Envíanos tu versión de esta canción

Letra de Tumba, Tumba
Punteo:
Riff 1:
Riff 2:
Punteo
Riff 1:
Tumba tumba la cueca que es puro color,
tumba tumba los cantores,
Tumba tumba la cueca que es puro color,
que la sacan bien bonito,
Tumba tumba la cueca que es puro color,
que la sacan bien bonito,
Tumba tumba la cueca que es puro color,
y hasta los cabro en la rueda,
Tumba tumba la cueca que es puro color,
tumba tumba panderito,
Tumba tumba la cueca que es puro color,
estan dele que suene,
Piano, acordeón y guitarra
Tumba tumba la cueca que es puro color,
tumba tumba la jarana,
están dele que suene,
Piano, acordeón y guitarra,
jara jarana sii,
tumba tumba arremangando,
Tumba tumba la cueca que es puro color,
algunoh ya la van floriando,
sácate una a la pelea,
que el cantor muere en la rueda..




[Tumba, Tumba chords][Tumba, Tumba cifra]
© LaCuerda.net · aviso legal · privacidad · es · en · pt · contacto
DINAMICO