Acordes de Guitarra » T »los Trio » Amor Añejo (Tab)

Amor Añejo
los Trio

Letras, Acordes y Tabs para Guitarra, Bajo y Ukulele

  • e--0-8-7-5-4-5-0-8-7-5-4-5-0-8-7-5-4-5-5------]
    B-----------------------------------------6---]
    G-------------------------------------------7-]
    
    
    e----7-5------------7-5--------------7-5--------------]
    B---------8-7-8----------8-7-8------------8-7-8-8-5---]
    G--7--------------7---------------7-----------------5-]
    
    
    e----5-3------------5-3------------5-3--------------]
    B---------6-5-6----------6-5-6----------6-5-6-6-3---]
    G--5--------------5--------------5----------------4-]
    
    
    e--------------------------------------------]
    B--5--5--3--5--3--5--5--1--1--3--3--0--0--1--]
    G--5--5--4--5--4--5--5--2--2--4--4--1--1--2--]
    
    
    
  • +
    ¡Colabora con nosotros!
    Envíanos tu versión de esta canción

Letra de Amor Añejo
Sobre mis sienes brillan la escarcha que deja el tiempo
y de la vida tengo un monton de conocimiento
y te vengo a pedir un poquito de amor
porque puedo quererte como un señor.
Dale a mi vida la inmensa dicha de tu presencia
para ofrecerte noches divinas con mi experiencia
pues me sobra valor y te confieso ahora
que sabre hacer de ti la gran señora.
Se que junto a mi eres mas joven
se que en realidad yo soy mas viejo
pero te puedo amar cuando tu quieras
para hacerte feliz con este amor añejo.
así por siempre seras mi amante mi compañera
y aqui conmigo ni amor ni nada te faltara
y aqui conmigo ni amor ni nada te faltara.




[Amor Añejo chords][Amor Añejo cifra]
© LaCuerda.net · aviso legal · privacidad · es · en · pt · contacto
DINAMICO