Acordes de Guitarra » T »Torre Fuerte » Tu presencia contemplar (Tab)

Tu presencia contemplar
Torre Fuerte

Letras, Notas, Punteos, Tablaturas y Acordes de Guitarra (Tabs & Chords)

  • Letra y Acordes
    e||-------------------|---------------0-------||
    B||-----------0--2--3-|---------0-2-3---3-2-0-||
    G||------2--2---------|----2--2---------------||
    D||-----2-------------|---2-------------------||
    A||----0--------------|--0--------------------||
    E||-------------------|-----------------------||
    
    e||-------------------|---------------0-------||
    B||-----------0--2s3--|---------0-2-3---3-2-0-||
    G||------2--2---------|----2--2---------------||
    D||-----2-------------|---2-------------------||
    A||----0--------------|--0--------------------||
    E||-------------------|-----------------------||
    
    
    A                  G#m7+4
    Tu presencia contemplar,
       C#7        F#m      Dmaj7       G  E7
    adorarte mi Jesús en espíritu y verdaaaad.
       A         G#m7+4     C#7       F#m
    
  • +
    ¡Colabora con nosotros!
    Envíanos tu versión de esta canción

Letra de Tu presencia contemplar
Tu presencia contemplar,
adorarte mi Jesús en espíritu y verdaaaad.
Vivir en comunión, tener intimidad
contigo oh Señor
Tu presencia contemplar,
adorarte mi Jesús en espíritu y verdaaaad.
Vivir en comunión, tener intimidad
contigo oh Señor
En tu presencia quiero estar,
contigo habitar para siempre señor
En tu presencia quiero estar,
contigo habitar para siem - pre señor.
Un saludo a Iza de Strike 3 y a los chicos de Evodia.



© LaCuerda.net · Aviso Legal · Privacidad