Acordes de Guitarra » T »Tony Ronald » Help, Ayúdame (Tab)

Help, Ayúdame
Tony Ronald

Letras, Acordes y Tabs para Guitarra, Bajo y Ukulele

  •      E   B   G   D   A   E    ½      E  B  G  D  A  E
    E  : 7   9   9   9   7   7    ½ A  : 5  5  6  7  7  5
    B  : 7   7   8   9   9   7    ½ B  : 2  4  4  4  2  2
    F#m: 9  10  11  11   9   9    ½ E  : 0  0  1  2  2  0
    C#m: 9   9   9  11  11   9    ½ F#m: 2  2  2  4  4  2
    
    (Riff)
        E            E            B            B
    e------------------------------------------------------
    B---------9------------9------------7------------7-----
    G------9-----9------9-----9------8-----8------8-----8--
    D---9------------9------------9------------9-----------
    A------------------------------------------------------
    E------------------------------------------------------
    
        F#m              F#m               C#m          C#m
    e----------------------------------------------------------------
    B-----------10---------------10--------------9-------------9-----
    G-------11------11-------11------11-------9-----9-------9-----9--
    D---11---------------11---------------11------------11-----------
    
  • INTRO: RE LA MIm SIm                           ORIGINAL MI (CEJILLA 2)
    
    RE                LA
    Solo en mi cuarto en un rincón
       MIm             SIm
    apurando un vaso y una ilusión.
            RE            LA
    Cuántas horas me paso sin nada más
    MIm               SIm
    que recordando su forma de amar.
    
    RE           LA
    Somos amigos desde niñez
          MIm         SIm
    y por eso te pido ayúdame.
         RE            LA
    Esta noche contigo voy a salir
    MIm                  SIm
    rey de este mundo me quiero sentir.
    
    
  • +
    ¡Colabora con nosotros!
    Envíanos tu versión de esta canción

Letra de Help, Ayúdame
(Riff)
apurando un vaso y una ilusión.
Cuántas horas me paso sin nada más
que recordando su forma de amar.
Somos amigos desde niñez
y por eso te pido ayúdame.
Esta noche contigo voy a salir
rey de este mundo me quiero sentir.
Pre-Coro:
El olvidarme de aquel fracaso
de aquel fracaso.
Help, ayúdame
en tu amistad he puesto toda mi fe.
Help, ayúdame
y tiéndeme la mano de un hermano. (x2)
Supo reírse de mi amor
yo que tanto la quise y se burló.
Ya pasé días tristes, ahora cambie
su compañía me hará un gran bien.
Somos amigos desde niñez
y por eso te pido ayúdame.
Esta noche contigo voy a salir
rey de este mundo me quiero sentir.
Pre-Coro:
El olvidarme de aquel fracaso
de aquel fracaso.
Help, ayúdame
en tu amistad he puesto toda mi fe.
Help, ayúdame
y tiéndeme la mano de un hermano. (x4)

Video de Help, Ayúdame
[]




[Help, Ayúdame chords][Help, Ayúdame cifra]
© LaCuerda.net · aviso legal · privacidad · es · en · pt · contacto