Acordes de Guitarra » T »El Tiempo » Medianoche (Tab)

Medianoche
El Tiempo

Letras, Acordes y Tabs para Guitarra, Bajo y Ukulele

  • Am                  G                      F                      Am 
    Te recuendo en el silencio, rumores de hace tiempo que quiebran mi razon
    Am                  G                      F                      Am 
    y en tus ojos que no mienten busco que me encuentre, la que esperaba yo
    
    Estribillo:
    
    F                      G                        Am                  E+7
    mamaaa medianoche en tu sonrisa las palabras que en la brisa no debimos olvidar
          F                      G                        Am                  E+7
    la tormenta que siempre paso de largo se hizo fuerte y se ha tragado lo que habia que salvar
            F     G
    hasta pronto.... si te vas.
    
    (punteo) Am, G, F, Am
    
    Am                  G                      F                      Am 
    Y en el tiempo que nos quede, mientras que el viento muere no quieras recomenzar
    Am                  G                      F                  Am 
    valen mas que lo olvidemos bebamos y brindemos lo hecho hecho esta
    
  •        F                   G            A                    Em (E)
    E-||---7/8--------8--10----7---------7--7/8---------8--10----7---
    B-||----------10-----------------10-------------10---------------
    G-||-------------------------------------------------------------
    D-||-------------------------------------------------------------
    A-||-------------------------------------------------------------
    E-||-------------------------------------------------------------
    
           F                   G                           A  A    A    
    E-||---7/8--------8--10----7---------------------7-8-7-----------
    B-||----------10-----------------10-------8-8-10-------10--------
    G-||-------------------------------------------------------------
    D-||-------------------------------------------------------------
    A-||-------------------------------------------------------------
    E-||-------------------------------------------------------------
    
    
    A                    G
    Te recuerdo en el silencio
                      F
    
  • +
    ¡Colabora con nosotros!
    Envíanos tu versión de esta canción

Letra de Medianoche
Te recuendo en el silencio, rumores de hace tiempo que quiebran mi razon
y en tus ojos que no mienten busco que me encuentre, la que esperaba yo
Estribillo:
mamaaa medianoche en tu sonrisa las palabras que en la brisa no debimos olvidar
la tormenta que siempre paso de largo se hizo fuerte y se ha tragado lo que habia que salvar
hasta pronto.... si te vas.
(punteo) Am, G, F, Am
Y en el tiempo que nos quede, mientras que el viento muere no quieras recomenzar
valen mas que lo olvidemos bebamos y brindemos lo hecho hecho esta
horas perdidas
no volveran,
Estribillo:
mamaaa medianoche en tu sonrisa las palabras que en la brisa no debimos olvidar
la tormenta que siempre paso de largo se hizo fuerte y se ha tragado lo que habia que salvar
y es mi alma medianoche en tu sonrisa las palabras que en la brisa no debimos olvidar
la tormenta que siempre paso de largo se hizo fuerte y se ha tragado lo que habia que salvar
y es mi alma, medianoche.
Y hasta pronto, si te vas.

Video de Medianoche
[]




[Medianoche chords][Medianoche cifra]
© LaCuerda.net · aviso legal · privacidad · es · en · pt · contacto