Acordes de Guitarra » T »The Mars Volta » Asilos Magdalena (Tab)

Asilos Magdalena
The Mars Volta

Letras, Acordes y Tabs para Guitarra, Bajo y Ukulele

  • e-x-----7-----7---7-|---------|-------3---|---------------|---------------|
    b-x-----6-----6---6-|-----3---|----2--2---|-----2---2---2-|----6------6---|
    g-x---7-----7-------|---2-----|-3-------3-|---0-0---0---0-|---0------0----|
    D-x-0-----0-----0---|-3-----3-|-----------|-2-----2---2---|-/7----7-5---5-|
    A-x-----------------|---------|-----------|---------------|---------------|
    E-x-----------------|---------|-----------|---------------|---------------|
    
    bridge 1
    1:22 min
    e---------|-------------|
    b-----8---|-------10----|
    g---7-----|----10-------|
    D-8-----8-|-11-------11-|
    A---------|-------------|
    E---------|-------------|
    
    coro
    1:25 min
    e-12-------|10-------|-8--------|-6------|-6------6-|-3-------|
    b--------0-|---------|----------|--------|----------|---------|
    
  • +
    ¡Colabora con nosotros!
    Envíanos tu versión de esta canción

Letra de Asilos Magdalena
bridge 1
1:22 min
1:25 min
bridge 2
2:03
esa es toda la tablatura y ahi les dejo a continuacion la letra
Enfermo llegué
y para componerme ando de vago
No me des tu obediencia
por que te enseño mi cuerpo de lobo
a donde la piel estuvo debil
con una hambre que no me deja cantar
En mi vida,
el oscuro me mantiene
cuando yo te vi
en la lluvia me prometistes tu sangre
Yo no me quedo en mi vida
el oscuro me mantiene
cuando yo te vi
en la lluvia me prometistes tu sangre
yo no me quedo
Y ya que caiste de este mundo
cargo una navaja
dios mio
para ti
Cuantas veces me mordiste
y cuantas veces yo me fui
Y ya no me estoy enamorado
con tus mentiras
el infierno me duermo
por que el infierno es la unica verdad
En mi vida,
el oscuro me mantiene
cuando yo te vi
en la lluvia me prometistes tu sangre
Yo no me quedo en mi vida
el oscuro me mantine
cuando yo te vi
en la lluvia me prometistes tu sangre
yo no me quedo
Estrella de la mañana
Ismael te persigo a ti
y si me quedo sin alas
ademas me muero por ti
Estrella de la mañana
Ismael te persigo a ti
y si me quedo sin alas
ademas me muero por ti
Estrella de la mañana
Ismael te persigo a ti
y si me quedo sin alas
ademas me muero por ti
Estrella de la mañana
Ismael te persigo a ti
y si me quedo sin alas
ademas me muero por ti
Estrella de la mañana
Ismael te persigo a ti
y si me quedo sin alas
ademas me muero por ti

Video de Asilos Magdalena
[]




[Asilos Magdalena chords][Asilos Magdalena cifra]
© LaCuerda.net · aviso legal · privacidad · es · en · pt · contacto