Acordes de Guitarra » T »Termofrigidus » Alakza (Tab)
  • Tablatura
    E|-----0----------0------------1-----------3---3--------
    B|--1----1-----------0------------1--------0------0-----
    G|--2------2-----------0-------------2-----0---------0--
    D|--2----------2-----------3---------------0------------     x3
    A|-------------2-----------3---------------2------------
    E|-------------0-----------1---------------3------------
    
    A la segunda vez de la intro toca este solo muy lentamente y
    dura la segunda y tercera vez de la intro.
    
    E|------------------------------5-7--
    B|-7--8-7--8-7-5-7-8--8-7-5-8-7------
    G|-----------------------------------
    D|-----------------------------------
    A|-----------------------------------
    E|-----------------------------------
    
    
    
    Aki empieza la letra y distorsion de las guitarras
    
  • +
    ¡Colabora con nosotros!
    Envíanos tu versión de esta canción

Letra de Alakza
A la segunda vez de la intro toca este solo muy lentamente y
dura la segunda y tercera vez de la intro.
Aki empieza la letra y distorsion de las guitarras
hace dos rondas con estas quintas --> A-E-F-G x2
Una noche cualquiera una joven regresa a su hogar
Una mente enferma acecha en la oscuridad.
Sintiendo el peligro se refugia en un local.
Ella tuvo suerte, otra, tal vez no la tendrá
Un, dos, tres y ....
(cambio de ritmo) A-E-F-G x2
Aki hace otro cambio al ritmo de antes o similar.
El camino nunca fué tan peligroso,
sobretodo cuando la intentan violar
Por fortuna ella logro escapar,
otras mujeres no tuvieron tanta suerte.
E|1-3-2-0-- Aki a ritmo de ska Am-E-F-G x6
EL SOLO (entra despues de la primera de las 6 rondas de acordes)
Akí entran las tromeptas
y la voz de Agus (vocalista y guitarra de Los de Marras)
Una lacra social,
de jodidos enfermos,
que no pueden follar,
si no es por la fuerza
y mete ditorssion otra vez
con A-E-F-G x2
A la caza del violador
a causado demasiado dolor x3 ( y en palm muted)
Ahora A-A-A-A-E-E-E-E-F-F-F-F-G-G-G-G
(cada acorde es un golpe hacia abajo)
y la 2º vez hace A-A-A-A-E-E-E-E-F-F-F-F-G-G-G-G-G-G-A-SI
y entra la guitarra en limpio con la intro en distorsion
Es el primer tab ke me sako, es posible k este mal,
peusto k muxo oido no tengo, si no es bastante parecido,
lo subo xke es la priemra de termo en esta web y abra gente k le mole
ya ke de los de marras estoy seguro k otra persona los sacara por mi
saludos y espèro k os mole
ATENTAMENTE: Víktor M.R..



© LaCuerda.net · aviso legal · privacidad · contacto
DINAMICO