Acordes de Guitarra » T »los Temerarios » Largo camino (Tab)

Largo camino
los Temerarios

Letras, Acordes y Tabs para Guitarra, Bajo y Ukulele

  •    Am                            Dm               E            Am
    e-----------------------------------------------------------------
    B-5-3-5-3---5--5-5-3-5-3---5---5-6-5-6-5-3-6--6-6-5---------------
    G---------5--------------5--------------------------5-5-4--4-4-2--
    D-----------------------------------------------------------------
    A-----------------------------------------------------------------
    E-----------------------------------------------------------------
       Am                           Dm                E           Am
    e------------------------------------------------------------------5-
    B------------------------------------------------------------------5-
    G------------------------------------------------------------------5-
    D-2-0-2-0---2--2-2-0-2-0---2---2-3-2-3-2-0-3--3-3-2------------------
    A---------3--------------3--------------------------3-3-2--2-2-0-----
    E--------------------------------------------------------------------
      Am         Dm    G               C    F     Dm       E         Am       E        Am  
    e-5-----5----------3---------------1--0-1-1-0----------3/4-------3/5------3/4------3/5-
    B---5-5---5-5/6--6---3-3-3-5-6-5--1-----------3--6-6-5-----6-6-5-----6-6-5----6-6-5----
    G--------------------------------------------------------------------------------------
    D--------------------------------------------------------------------------------------
    A--------------------------------------------------------------------------------------
    
  • +
    ¡Colabora con nosotros!
    Envíanos tu versión de esta canción

Letra de Largo camino
FINAL
(las primeras notas, se tocan al mismo tiempo que el teclado esta tocando
el renglon de arriba,y las notas otras son la guitarra para terminar la cancion)




[Largo camino chords][Largo camino cifra]
© LaCuerda.net · aviso legal · privacidad · es · en · pt · contacto
DINAMICO