Acordes de Guitarra » T »Tan Bionica » El Asunto (Tab)

El Asunto
Tan Bionica

Letras, Notas, Punteos, Tablaturas y Acordes de Guitarra (Tabs & Chords)

  • Letra y Acordes
    C
    Ya bajé la guardia hace algún tiempo
            F                    Am G
    No me enojo ni me río porque sí
    C
    Canto mi bolero desangrado
    F                           Am         G
    Pinto el cielo en acuarelas azul sobre gris
    
    C/A        C/B       C
    Y eran calesitas desoladas
    C/A         C/B      C
    No me dejen solo por ahí
    C/A          C/B          C
    Ya le rendí cuentas al destino
          F      G            C
    No me sigas, don't follow me
    
    F           C     F            C
    Todas las mañanas llora porque sí
    
  • Tablatura
    1|---------------
    2|--------1------  Ejemplo de como se arpegia esta canción
    3|-----------0---  se toca la cuerda 5, 4, 2, 3, 4 en ese orden
    4|-----2--------2
    5|--3------------
    6|---------------
    
    Intro:
    
    1|------------------
    2|--------1---------
    3|-----------0------ x6     ((Continua lo de abajo))
    4|-----2--------2---
    5|--3---------------
    6|------------------
    
    
    se tocan seguidas
        G Em Am            F              G(cejilla)    C(se toca dos veces)
    1|--x--x--x-------------------------------------------------------
    
  • Tablatura
       FA        DO       FA        DO       FA        DO
    1--------------------------------------------------------a
    2--------------------------------------------------------e
    3-----0--------0--------0---------0---------0-------0----C
    4---2---2--------2----2---2---------2-----2---2-------2--G
    5-3----------2------3-----------2-------3---------2------D
    6----------3------------------3-----------------3--------A
    
       MI     LAm   FA  SOL   DO
    1-------------------------------------------a
    2-------------------------------------------e
    3-----------------------------0-------------C
    4-------------------------------2---------0-G
    5-0/2-2-0---0/2-3-2-0-------2-------2-0/2---D
    6---------3-----------3-2-3-------3---------A
    
      FA  SOL   DO
    1-------------------------------
    2-------------------------------
    3---------------0-------0-------
    
  • +
    ¡Colabora con nosotros!
    Envíanos tu versión de esta canción

Letra de El Asunto
Ya bajé la guardia hace algún tiempo
No me enojo ni me río porque sí
Canto mi bolero desangrado
Pinto el cielo en acuarelas azul sobre gris
Y eran calesitas desoladas
No me dejen solo por ahí
Ya le rendí cuentas al destino
No me sigas, don't follow me
Todas las mañanas llora porque sí
No pretendo en sueños, yo sin vos sin mí
Fue la última vez que la vi..
Yo vivo la vida de la ausencia
Veo con los ojos del olvido la verdad
Cada lunes es un día muerto
Y el espejo,fatalidad
Ponganme anestesia sin apuro
Que hoy me está costando sonreír
Tengo más pasado que futuro
Y unos años sin dormir
Se curó de espanto, se acercó hasta mí
y escondió consejos para ser feliz
Fue la última vez que la vi..
Todas las mañanas llora porque sí
No pretendo en sueños, yo sin vos sin mí
Fue la última vez que la vi..
Fue la última vez que la vi..
C/A: Do con bajo en La
C/B: Do con bajo en Si



© LaCuerda.net · Aviso Legal · Privacidad